0
SECTION
2
HEADER
9
$INSUNITS
70
4
9
$ACADVER
1
AC1014
9
$HANDSEED
5
FFFF
0
ENDSEC
0
SECTION
2
TABLES
0
TABLE
2
VPORT
5
8
100
AcDbSymbolTable
0
ENDTAB
0
TABLE
2
LTYPE
5
5
100
AcDbSymbolTable
0
LTYPE
5
14
100
AcDbSymbolTableRecord
100
AcDbLinetypeTableRecord
2
BYBLOCK
70
0
0
LTYPE
5
15
100
AcDbSymbolTableRecord
100
AcDbLinetypeTableRecord
2
BYLAYER
70
0
0
ENDTAB
0
TABLE
2
LAYER
5
2
100
AcDbSymbolTable
70
2
0
LAYER
5
50
100
AcDbSymbolTableRecord
100
AcDbLayerTableRecord
2
0
70
0
6
CONTINUOUS
0
ENDTAB
0
TABLE
2
STYLE
5
3
100
AcDbSymbolTable
70
1
0
STYLE
5
11
100
AcDbSymbolTableRecord
100
AcDbTextStyleTableRecord
2
STANDARD
70
0
0
ENDTAB
0
TABLE
2
VIEW
5
6
100
AcDbSymbolTable
70
0
0
ENDTAB
0
TABLE
2
UCS
5
7
100
AcDbSymbolTable
70
0
0
ENDTAB
0
TABLE
2
APPID
5
9
100
AcDbSymbolTable
70
2
0
APPID
5
12
100
AcDbSymbolTableRecord
100
AcDbRegAppTableRecord
2
ACAD
70
0
0
ENDTAB
0
TABLE
2
DIMSTYLE
5
A
100
AcDbSymbolTable
70
1
0
ENDTAB
0
TABLE
2
BLOCK_RECORD
5
1
100
AcDbSymbolTable
70
1
0
BLOCK_RECORD
5
1F
100
AcDbSymbolTableRecord
100
AcDbBlockTableRecord
2
*MODEL_SPACE
0
BLOCK_RECORD
5
1B
100
AcDbSymbolTableRecord
100
AcDbBlockTableRecord
2
*PAPER_SPACE
0
ENDTAB
0
ENDSEC
0
SECTION
2
BLOCKS
0
BLOCK
5
20
100
AcDbEntity
100
AcDbBlockBegin
2
*MODEL_SPACE
0
ENDBLK
5
21
100
AcDbEntity
100
AcDbBlockEnd
0
BLOCK
5
1C
100
AcDbEntity
100
AcDbBlockBegin
2
*PAPER_SPACE
0
ENDBLK
5
1D
100
AcDbEntity
100
AcDbBlockEnd
0
ENDSEC
0
SECTION
2
ENTITIES
0
LWPOLYLINE
5
100
100
AcDbEntity
8
0
100
AcDbPolyline
90
8
70
1
43
0.0
10
82.1139379149799
20
70.409807862177686
10
120.11393791497996
20
70.409807862177686
42
-0.41421356237309503
10
126.1139379149799
20
64.409807862177743
10
126.1139379149799
20
56.409807862177644
42
-0.41421356237309503
10
120.11393791497994
20
50.409807862177686
10
82.113937914979886
20
50.409807862177693
42
-0.41421356237309503
10
76.113937914979914
20
56.409807862177665
10
76.1139379149799
20
64.409807862177686
42
-0.41421356237309503
0
CIRCLE
5
101
100
AcDbEntity
8
0
100
AcDbCircle
10
81.1139379149799
20
60.409807862177686
30
0
40
1.2500000000000058
210
0
220
0
230
1
0
CIRCLE
5
102
100
AcDbEntity
8
0
100
AcDbCircle
10
121.1139379149799
20
60.409807862177686
30
0
40
1.25
210
0
220
0
230
1
0
LWPOLYLINE
5
103
100
AcDbEntity
8
0
100
AcDbPolyline
90
4
70
1
43
0.0
10
84.148546900042646
20
62.666706144944115
10
111.00000165402889
20
63.000000938773155
10
110.9307836839034
20
68.576455259092199
10
84.079328929917125
20
68.243160465263145
0
LWPOLYLINE
5
104
100
AcDbEntity
8
0
100
AcDbPolyline
90
4
70
1
43
0.0
10
84.113937914979914
20
57.000238283640215
10
111.00000165402889
20
57.000238283640215
10
111.00000165402889
20
62.409807862177686
10
84.113937914979914
20
62.409807862177686
0
LWPOLYLINE
5
105
100
AcDbEntity
8
0
100
AcDbPolyline
90
4
70
1
43
0.0
10
84.115836077587431
20
52.964685281609427
10
116.0000017285347
20
53.000000789761543
10
115.99620540331966
20
56.427465616253734
10
84.112039752372397
20
56.392150108101617
0
SPLINE
5
106
100
AcDbEntity
8
0
100
AcDbSpline
70
0
71
2
72
6
73
3
74
0
42
0.000000001
43
0.0000000001
44
0.0000000001
40
0
40
0
40
0
40
1
40
1
40
1
10
84.111162190837248
20
65.678555853688692
30
0
10
84.095711208920818
20
66.923343799721337
30
0
10
84.75540399356322
20
67.635883940965144
30
0
0
SPLINE
5
107
100
AcDbEntity
8
0
100
AcDbSpline
70
0
71
2
72
6
73
3
74
0
42
0.000000001
43
0.0000000001
44
0.0000000001
40
0
40
0
40
0
40
1
40
1
40
1
10
84.75540399356322
20
67.635883940965144
30
0
10
85.415096670154455
20
68.34842378282157
30
0
10
86.472314158415344
20
68.361546538665181
30
0
0
SPLINE
5
108
100
AcDbEntity
8
0
100
AcDbSpline
70
0
71
2
72
6
73
3
74
0
42
0.000000001
43
0.0000000001
44
0.0000000001
40
0
40
0
40
0
40
1
40
1
40
1
10
86.472314158415344
20
68.361546538665181
30
0
10
87.164620931337652
20
68.370139825146737
30
0
10
87.724618569162459
20
68.04623332960621
30
0
0
SPLINE
5
109
100
AcDbEntity
8
0
100
AcDbSpline
70
0
71
2
72
6
73
3
74
0
42
0.000000001
43
0.0000000001
44
0.0000000001
40
0
40
0
40
0
40
1
40
1
40
1
10
87.724618569162459
20
68.04623332960621
30
0
10
88.284616508686483
20
67.722326539764353
30
0
10
88.583548316668313
20
67.134245486828235
30
0
0
SPLINE
5
110
100
AcDbEntity
8
0
100
AcDbSpline
70
0
71
2
72
6
73
3
74
0
42
0.000000001
43
0.0000000001
44
0.0000000001
40
0
40
0
40
0
40
1
40
1
40
1
10
88.583548316668313
20
67.134245486828235
30
0
10
88.88248042634936
20
66.546164139590786
30
0
10
88.891793352834299
20
65.795880520502195
30
0
0
SPLINE
5
111
100
AcDbEntity
8
0
100
AcDbSpline
70
0
71
2
72
6
73
3
74
0
42
0.000000001
43
0.0000000001
44
0.0000000001
40
0
40
0
40
0
40
1
40
1
40
1
10
88.891793352834299
20
65.795880520502195
30
0
10
88.901233263952292
20
65.035366552208558
30
0
10
88.601749287487962
20
64.4313299412307
30
0
0
SPLINE
5
112
100
AcDbEntity
8
0
100
AcDbSpline
70
0
71
2
72
6
73
3
74
0
42
0.000000001
43
0.0000000001
44
0.0000000001
40
0
40
0
40
0
40
1
40
1
40
1
10
88.601749287487962
20
64.4313299412307
30
0
10
88.302265601626019
20
63.827293929952333
30
0
10
87.743384185555428
20
63.511669765080605
30
0
0
SPLINE
5
113
100
AcDbEntity
8
0
100
AcDbSpline
70
0
71
2
72
6
73
3
74
0
42
0.000000001
43
0.0000000001
44
0.0000000001
40
0
40
0
40
0
40
1
40
1
40
1
10
87.743384185555428
20
63.511669765080605
30
0
10
87.184502769484823
20
63.196045600208876
30
0
10
86.533120373385358
20
63.18796028924897
30
0
0
SPLINE
5
114
100
AcDbEntity
8
0
100
AcDbSpline
70
0
71
2
72
6
73
3
74
0
42
0.000000001
43
0.0000000001
44
0.0000000001
40
0
40
0
40
0
40
1
40
1
40
1
10
86.533120373385358
20
63.18796028924897
30
0
10
85.827172042188678
20
63.179197676360545
30
0
10
85.267047255934912
20
63.513335711257717
30
0
0
SPLINE
5
115
100
AcDbEntity
8
0
100
AcDbSpline
70
0
71
2
72
6
73
3
74
0
42
0.000000001
43
0.0000000001
44
0.0000000001
40
0
40
0
40
0
40
1
40
1
40
1
10
85.267047255934912
20
63.513335711257717
30
0
10
84.706922469681146
20
63.84747374615489
30
0
10
84.413127299640593
20
64.433913137572205
30
0
0
SPLINE
5
116
100
AcDbEntity
8
0
100
AcDbSpline
70
0
71
2
72
6
73
3
74
0
42
0.000000001
43
0.0000000001
44
0.0000000001
40
0
40
0
40
0
40
1
40
1
40
1
10
84.413127299640593
20
64.433913137572205
30
0
10
84.119332166850072
20
65.020352529451912
30
0
10
84.111162190837248
20
65.678555853688692
30
0
0
SPLINE
5
117
100
AcDbEntity
8
0
100
AcDbSpline
70
0
71
2
72
6
73
3
74
0
42
0.000000001
43
0.0000000001
44
0.0000000001
40
0
40
0
40
0
40
1
40
1
40
1
10
84.793364831732646
20
65.67679060462136
30
0
10
84.804582668273241
20
64.773040423446957
30
0
10
85.297017201152045
20
64.258990073775607
30
0
0
SPLINE
5
118
100
AcDbEntity
8
0
100
AcDbSpline
70
0
71
2
72
6
73
3
74
0
42
0.000000001
43
0.0000000001
44
0.0000000001
40
0
40
0
40
0
40
1
40
1
40
1
10
85.297017201152045
20
64.258990073775607
30
0
10
85.789451734030862
20
63.744939724104277
30
0
10
86.522683032776158
20
63.754040987956955
30
0
0
SPLINE
5
119
100
AcDbEntity
8
0
100
AcDbSpline
70
0
71
2
72
6
73
3
74
0
42
0.000000001
43
0.0000000001
44
0.0000000001
40
0
40
0
40
0
40
1
40
1
40
1
10
86.522683032776158
20
63.754040987956955
30
0
10
87.269556038795955
20
63.763311580065967
30
0
10
87.745605518379278
20
64.294499538388564
30
0
0
SPLINE
5
120
100
AcDbEntity
8
0
100
AcDbSpline
70
0
71
2
72
6
73
3
74
0
42
0.000000001
43
0.0000000001
44
0.0000000001
40
0
40
0
40
0
40
1
40
1
40
1
10
87.745605518379278
20
64.294499538388564
30
0
10
88.221654994263673
20
64.825687794711428
30
0
10
88.209675194440592
20
65.790824541120102
30
0
0
SPLINE
5
121
100
AcDbEntity
8
0
100
AcDbSpline
70
0
71
2
72
6
73
3
74
0
42
0.000000001
43
0.0000000001
44
0.0000000001
40
0
40
0
40
0
40
1
40
1
40
1
10
88.209675194440592
20
65.790824541120102
30
0
10
88.202097859002336
20
66.401282560396723
30
0
10
87.990118670706806
20
66.854007210009144
30
0
0
SPLINE
5
122
100
AcDbEntity
8
0
100
AcDbSpline
70
0
71
2
72
6
73
3
74
0
42
0.000000001
43
0.0000000001
44
0.0000000001
40
0
40
0
40
0
40
1
40
1
40
1
10
87.990118670706806
20
66.854007210009144
30
0
10
87.778139486110234
20
67.306731561621305
30
0
10
87.377718966679097
20
67.552462870820477
30
0
0
SPLINE
5
123
100
AcDbEntity
8
0
100
AcDbSpline
70
0
71
2
72
6
73
3
74
0
42
0.000000001
43
0.0000000001
44
0.0000000001
40
0
40
0
40
0
40
1
40
1
40
1
10
87.377718966679097
20
67.552462870820477
30
0
10
86.977298748947177
20
67.79819388571832
30
0
10
86.482793826002592
20
67.79205582288894
30
0
0
SPLINE
5
124
100
AcDbEntity
8
0
100
AcDbSpline
70
0
71
2
72
6
73
3
74
0
42
0.000000001
43
0.0000000001
44
0.0000000001
40
0
40
0
40
0
40
1
40
1
40
1
10
86.482793826002592
20
67.79205582288894
30
0
10
85.780255809874447
20
67.783335540677484
30
0
10
85.279804536950905
20
67.294480796424736
30
0
0
SPLINE
5
125
100
AcDbEntity
8
0
100
AcDbSpline
70
0
71
2
72
6
73
3
74
0
42
0.000000001
43
0.0000000001
44
0.0000000001
40
0
40
0
40
0
40
1
40
1
40
1
10
85.279804536950905
20
67.294480796424736
30
0
10
84.779353115027206
20
66.805626050322502
30
0
10
84.793364831732646
20
65.67679060462136
30
0
0
LINE
5
126
100
AcDbEntity
8
0
100
AcDbLine
10
89.748049389941386
20
63.31313852954267
30
0
11
89.68599146341802
21
68.312753396085455
31
0
0
LINE
5
127
100
AcDbEntity
8
0
100
AcDbLine
10
89.685991463418006
20
68.312753396085441
30
0
11
91.561699319138398
21
68.336035697502012
31
0
0
SPLINE
5
128
100
AcDbEntity
8
0
100
AcDbSpline
70
0
71
2
72
6
73
3
74
0
42
0.000000001
43
0.0000000001
44
0.0000000001
40
0
40
0
40
0
40
1
40
1
40
1
10
91.561699319138427
20
68.336035697502027
30
0
10
92.134642978660423
20
68.343147384396673
30
0
10
92.482680262537841
20
68.195682326935099
30
0
0
SPLINE
5
129
100
AcDbEntity
8
0
100
AcDbSpline
70
0
71
2
72
6
73
3
74
0
42
0.000000001
43
0.0000000001
44
0.0000000001
40
0
40
0
40
0
40
1
40
1
40
1
10
92.482680262537841
20
68.195682326935099
30
0
10
92.830717550114187
20
68.048216971473266
30
0
10
93.03072990415717
20
67.735190925942931
30
0
0
SPLINE
5
130
100
AcDbEntity
8
0
100
AcDbSpline
70
0
71
2
72
6
73
3
74
0
42
0.000000001
43
0.0000000001
44
0.0000000001
40
0
40
0
40
0
40
1
40
1
40
1
10
93.03072990415717
20
67.735190925942931
30
0
10
93.230742254501251
20
67.422165178412868
30
0
10
93.235017734253006
20
67.077716800485831
30
0
0
SPLINE
5
131
100
AcDbEntity
8
0
100
AcDbSpline
70
0
71
2
72
6
73
3
74
0
42
0.000000001
43
0.0000000001
44
0.0000000001
40
0
40
0
40
0
40
1
40
1
40
1
10
93.235017734253006
20
67.077716800485831
30
0
10
93.238996891868013
20
66.757141224039032
30
0
10
93.06858135244191
20
66.471921105831385
30
0
0
SPLINE
5
132
100
AcDbEntity
8
0
100
AcDbSpline
70
0
71
2
72
6
73
3
74
0
42
0.000000001
43
0.0000000001
44
0.0000000001
40
0
40
0
40
0
40
1
40
1
40
1
10
93.06858135244191
20
66.471921105831385
30
0
10
92.898165816714737
20
66.186700689623464
30
0
10
92.549055117864484
20
66.008411194622084
30
0
0
SPLINE
5
133
100
AcDbEntity
8
0
100
AcDbSpline
70
0
71
2
72
6
73
3
74
0
42
0.000000001
43
0.0000000001
44
0.0000000001
40
0
40
0
40
0
40
1
40
1
40
1
10
92.549055117864484
20
66.008411194622084
30
0
10
93.004286291979739
20
65.881036606556222
30
0
10
93.252107744998654
20
65.563487732696601
30
0
0
SPLINE
5
134
100
AcDbEntity
8
0
100
AcDbSpline
70
0
71
2
72
6
73
3
74
0
42
0.000000001
43
0.0000000001
44
0.0000000001
40
0
40
0
40
0
40
1
40
1
40
1
10
93.252107744998654
20
65.563487732696601
30
0
10
93.499929198017554
20
65.245938858836965
30
0
10
93.505347628241452
20
64.80941018605813
30
0
0
SPLINE
5
135
100
AcDbEntity
8
0
100
AcDbSpline
70
0
71
2
72
6
73
3
74
0
42
0.000000001
43
0.0000000001
44
0.0000000001
40
0
40
0
40
0
40
1
40
1
40
1
10
93.505347628241452
20
64.80941018605813
30
0
10
93.509707769347159
20
64.458141177994051
30
0
10
93.365102415357327
20
64.154481508986606
30
0
0
SPLINE
5
136
100
AcDbEntity
8
0
100
AcDbSpline
70
0
71
2
72
6
73
3
74
0
42
0.000000001
43
0.0000000001
44
0.0000000001
40
0
40
0
40
0
40
1
40
1
40
1
10
93.365102415357327
20
64.154481508986606
30
0
10
93.220497068765397
20
63.850821243978615
30
0
10
93.004265237860992
20
63.684413932972618
30
0
0
SPLINE
5
137
100
AcDbEntity
8
0
100
AcDbSpline
70
0
71
2
72
6
73
3
74
0
42
0.000000001
43
0.0000000001
44
0.0000000001
40
0
40
0
40
0
40
1
40
1
40
1
10
93.004265237860992
20
63.684413932972618
30
0
10
92.788032810956054
20
63.518006614568748
30
0
10
92.459968563219732
20
63.430367719081325
30
0
0
SPLINE
5
138
100
AcDbEntity
8
0
100
AcDbSpline
70
0
71
2
72
6
73
3
74
0
42
0.000000001
43
0.0000000001
44
0.0000000001
40
0
40
0
40
0
40
1
40
1
40
1
10
92.459968563219732
20
63.430367719081325
30
0
10
92.131903726880751
20
63.34272822019549
30
0
10
91.654451273279591
20
63.336801821847828
30
0
0
LINE
5
139
100
AcDbEntity
8
0
100
AcDbLine
10
91.654451273279591
20
63.336801821847828
30
0
11
89.748049389941386
21
63.313138529542663
31
0
0
LINE
5
140
100
AcDbEntity
8
0
100
AcDbLine
10
90.373681284304723
20
66.220172582528093
30
0
11
91.454770829045174
21
66.233591651261094
31
0
0
SPLINE
5
141
100
AcDbEntity
8
0
100
AcDbSpline
70
0
71
2
72
6
73
3
74
0
42
0.000000001
43
0.0000000001
44
0.0000000001
40
0
40
0
40
0
40
1
40
1
40
1
10
91.454770829045174
20
66.233591651261094
30
0
10
91.894709816892529
20
66.239052412161968
30
0
10
92.08497140042877
20
66.299399522626203
30
0
0
SPLINE
5
142
100
AcDbEntity
8
0
100
AcDbSpline
70
0
71
2
72
6
73
3
74
0
42
0.000000001
43
0.0000000001
44
0.0000000001
40
0
40
0
40
0
40
1
40
1
40
1
10
92.08497140042877
20
66.299399522626203
30
0
10
92.336408193814648
20
66.377560175414473
30
0
10
92.462138487672135
20
66.553076951890546
30
0
0
SPLINE
5
143
100
AcDbEntity
8
0
100
AcDbSpline
70
0
71
2
72
6
73
3
74
0
42
0.000000001
43
0.0000000001
44
0.0000000001
40
0
40
0
40
0
40
1
40
1
40
1
10
92.462138487672135
20
66.553076951890546
30
0
10
92.587868781529636
20
66.728593728366633
30
0
10
92.584609260219082
20
66.991192756647436
30
0
0
SPLINE
5
144
100
AcDbEntity
8
0
100
AcDbSpline
70
0
71
2
72
6
73
3
74
0
42
0.000000001
43
0.0000000001
44
0.0000000001
40
0
40
0
40
0
40
1
40
1
40
1
10
92.584609260219082
20
66.991192756647436
30
0
10
92.581519061616419
20
67.240150524654126
30
0
10
92.459806253256147
20
67.427944983674678
30
0
0
SPLINE
5
145
100
AcDbEntity
8
0
100
AcDbSpline
70
0
71
2
72
6
73
3
74
0
42
0.000000001
43
0.0000000001
44
0.0000000001
40
0
40
0
40
0
40
1
40
1
40
1
10
92.459806253256147
20
67.427944983674678
30
0
10
92.338093444895861
20
67.615739442695229
30
0
10
92.1155515957646
20
67.682900555210054
30
0
0
SPLINE
5
146
100
AcDbEntity
8
0
100
AcDbSpline
70
0
71
2
72
6
73
3
74
0
42
0.000000001
43
0.0000000001
44
0.0000000001
40
0
40
0
40
0
40
1
40
1
40
1
10
92.1155515957646
20
67.682900555210054
30
0
10
91.893009150632778
20
67.750061660326978
30
0
10
91.354169237796555
20
67.743373287600022
30
0
0
LINE
5
147
100
AcDbEntity
8
0
100
AcDbLine
10
91.354169237796555
20
67.743373287600022
30
0
11
90.354928446701805
21
67.730970169910321
31
0
0
LINE
5
148
100
AcDbEntity
8
0
100
AcDbLine
10
90.354928446701805
20
67.730970169910321
30
0
11
90.373681284304723
21
66.220172582528093
31
0
0
LINE
5
149
100
AcDbEntity
8
0
100
AcDbLine
10
90.402339688967146
20
63.911346071097114
30
0
11
91.64712793300005
21
63.926797056712488
31
0
0
SPLINE
5
150
100
AcDbEntity
8
0
100
AcDbSpline
70
0
71
2
72
6
73
3
74
0
42
0.000000001
43
0.0000000001
44
0.0000000001
40
0
40
0
40
0
40
1
40
1
40
1
10
91.64712793300005
20
63.926797056712488
30
0
10
91.967703509446864
20
63.930776214327494
30
0
10
92.097001543916249
20
63.956257611124514
30
0
0
SPLINE
5
151
100
AcDbEntity
8
0
100
AcDbSpline
70
0
71
2
72
6
73
3
74
0
42
0.000000001
43
0.0000000001
44
0.0000000001
40
0
40
0
40
0
40
1
40
1
40
1
10
92.097001543916249
20
63.956257611124514
30
0
10
92.324988246591175
20
64.000018783692894
30
0
10
92.477270726926832
20
64.097413722464125
30
0
0
SPLINE
5
152
100
AcDbEntity
8
0
100
AcDbSpline
70
0
71
2
72
6
73
3
74
0
42
0.000000001
43
0.0000000001
44
0.0000000001
40
0
40
0
40
0
40
1
40
1
40
1
10
92.477270726926832
20
64.097413722464125
30
0
10
92.629552007863538
20
64.19480924244013
30
0
10
92.726188793247175
20
64.378492293833446
30
0
0
SPLINE
5
153
100
AcDbEntity
8
0
100
AcDbSpline
70
0
71
2
72
6
73
3
74
0
42
0.000000001
43
0.0000000001
44
0.0000000001
40
0
40
0
40
0
40
1
40
1
40
1
10
92.726188793247175
20
64.378492293833446
30
0
10
92.822824386629748
20
64.562175330431018
30
0
10
92.819861187455913
20
64.800901557231597
30
0
0
SPLINE
5
154
100
AcDbEntity
8
0
100
AcDbSpline
70
0
71
2
72
6
73
3
74
0
42
0.000000001
43
0.0000000001
44
0.0000000001
40
0
40
0
40
0
40
1
40
1
40
1
10
92.819861187455913
20
64.800901557231597
30
0
10
92.816390005362564
20
65.080552756855553
30
0
10
92.670593334438749
20
65.285102774480137
30
0
0
SPLINE
5
155
100
AcDbEntity
8
0
100
AcDbSpline
70
0
71
2
72
6
73
3
74
0
42
0.000000001
43
0.0000000001
44
0.0000000001
40
0
40
0
40
0
40
1
40
1
40
1
10
92.670593334438749
20
65.285102774480137
30
0
10
92.524796663514934
20
65.489652792104735
30
0
10
92.269685706824191
20
65.570053299268963
30
0
0
SPLINE
5
156
100
AcDbEntity
8
0
100
AcDbSpline
70
0
71
2
72
6
73
3
74
0
42
0.000000001
43
0.0000000001
44
0.0000000001
40
0
40
0
40
0
40
1
40
1
40
1
10
92.269685706824191
20
65.570053299268963
30
0
10
92.014575942134528
20
65.650453821228936
30
0
10
91.537122892532835
20
65.644527415483395
30
0
0
LINE
5
157
100
AcDbEntity
8
0
100
AcDbLine
10
91.537122892532835
20
65.644527415483395
30
0
11
90.381004628283222
21
65.63017704966316
31
0
0
LINE
5
158
100
AcDbEntity
8
0
100
AcDbLine
10
90.381004628283222
20
65.630177049663175
30
0
11
90.402339688967146
21
63.911346071097114
31
0
0
LINE
5
159
100
AcDbEntity
8
0
100
AcDbLine
10
94.188885628895363
20
64.974796273243783
30
0
11
94.812307904517837
21
65.037108870186117
31
0
0
SPLINE
5
160
100
AcDbEntity
8
0
100
AcDbSpline
70
0
71
2
72
6
73
3
74
0
42
0.000000001
43
0.0000000001
44
0.0000000001
40
0
40
0
40
0
40
1
40
1
40
1
10
94.812307904517837
20
65.037108870186117
30
0
10
94.861298459952209
20
64.662517657442848
30
0
10
95.026275777620071
20
64.424096421253466
30
0
0
SPLINE
5
161
100
AcDbEntity
8
0
100
AcDbSpline
70
0
71
2
72
6
73
3
74
0
42
0.000000001
43
0.0000000001
44
0.0000000001
40
0
40
0
40
0
40
1
40
1
40
1
10
95.026275777620071
20
64.424096421253466
30
0
10
95.191254279891126
20
64.185675795860391
30
0
10
95.534133168187168
20
64.041557252053721
30
0
0
SPLINE
5
162
100
AcDbEntity
8
0
100
AcDbSpline
70
0
71
2
72
6
73
3
74
0
42
0.000000001
43
0.0000000001
44
0.0000000001
40
0
40
0
40
0
40
1
40
1
40
1
10
95.534133168187168
20
64.041557252053721
30
0
10
95.877012049085323
20
63.897439304247598
30
0
10
96.303309776658566
20
63.902730742440532
30
0
0
SPLINE
5
163
100
AcDbEntity
8
0
100
AcDbSpline
70
0
71
2
72
6
73
3
74
0
42
0.000000001
43
0.0000000001
44
0.0000000001
40
0
40
0
40
0
40
1
40
1
40
1
10
96.303309776658566
20
63.902730742440532
30
0
10
96.68186190127139
20
63.907429536359984
30
0
10
96.970346515566376
20
64.023569888349371
30
0
0
SPLINE
5
164
100
AcDbEntity
8
0
100
AcDbSpline
70
0
71
2
72
6
73
3
74
0
42
0.000000001
43
0.0000000001
44
0.0000000001
40
0
40
0
40
0
40
1
40
1
40
1
10
96.970346515566376
20
64.023569888349371
30
0
10
97.25883231446457
20
64.13971085113505
30
0
10
97.397929311497393
20
64.337564303662631
30
0
0
SPLINE
5
165
100
AcDbEntity
8
0
100
AcDbSpline
70
0
71
2
72
6
73
3
74
0
42
0.000000001
43
0.0000000001
44
0.0000000001
40
0
40
0
40
0
40
1
40
1
40
1
10
97.397929311497393
20
64.337564303662631
30
0
10
97.537025116529151
20
64.53541774139444
30
0
10
97.534146578709269
20
64.767323338057963
30
0
0
SPLINE
5
166
100
AcDbEntity
8
0
100
AcDbSpline
70
0
71
2
72
6
73
3
74
0
42
0.000000001
43
0.0000000001
44
0.0000000001
40
0
40
0
40
0
40
1
40
1
40
1
10
97.534146578709269
20
64.767323338057963
30
0
10
97.531225706513496
20
65.002639547790281
30
0
10
97.392630649217438
20
65.176580795151565
30
0
0
SPLINE
5
167
100
AcDbEntity
8
0
100
AcDbSpline
70
0
71
2
72
6
73
3
74
0
42
0.000000001
43
0.0000000001
44
0.0000000001
40
0
40
0
40
0
40
1
40
1
40
1
10
97.392630649217438
20
65.176580795151565
30
0
10
97.254035595620337
20
65.350521744512577
30
0
10
96.938799046024741
20
65.465990659652078
30
0
0
SPLINE
5
168
100
AcDbEntity
8
0
100
AcDbSpline
70
0
71
2
72
6
73
3
74
0
42
0.000000001
43
0.0000000001
44
0.0000000001
40
0
40
0
40
0
40
1
40
1
40
1
10
96.938799046024741
20
65.465990659652078
30
0
10
96.736613256913216
20
65.541931841900364
30
0
10
96.045663426236189
20
65.698784143223037
30
0
0
SPLINE
5
169
100
AcDbEntity
8
0
100
AcDbSpline
70
0
71
2
72
6
73
3
74
0
42
0.000000001
43
0.0000000001
44
0.0000000001
40
0
40
0
40
0
40
1
40
1
40
1
10
96.045663426236189
20
65.698784143223037
30
0
10
95.354713591860218
20
65.855636742545983
30
0
10
95.076653050904682
20
65.998854128476523
30
0
0
SPLINE
5
170
100
AcDbEntity
8
0
100
AcDbSpline
70
0
71
2
72
6
73
3
74
0
42
0.000000001
43
0.0000000001
44
0.0000000001
40
0
40
0
40
0
40
1
40
1
40
1
10
95.076653050904682
20
65.998854128476523
30
0
10
94.716234585081779
20
66.181980223391093
30
0
10
94.53715036599408
20
66.457745900626605
30
0
0
SPLINE
5
171
100
AcDbEntity
8
0
100
AcDbSpline
70
0
71
2
72
6
73
3
74
0
42
0.000000001
43
0.0000000001
44
0.0000000001
40
0
40
0
40
0
40
1
40
1
40
1
10
94.53715036599408
20
66.457745900626605
30
0
10
94.358066146906395
20
66.733511577862117
30
0
10
94.353790667154627
20
67.07795995578914
30
0
0
SPLINE
5
172
100
AcDbEntity
8
0
100
AcDbSpline
70
0
71
2
72
6
73
3
74
0
42
0.000000001
43
0.0000000001
44
0.0000000001
40
0
40
0
40
0
40
1
40
1
40
1
10
94.353790667154627
20
67.07795995578914
30
0
10
94.349091876934125
20
67.456511782401691
30
0
10
94.55986031424807
20
67.788280321557167
30
0
0
SPLINE
5
173
100
AcDbEntity
8
0
100
AcDbSpline
70
0
71
2
72
6
73
3
74
0
42
0.000000001
43
0.0000000001
44
0.0000000001
40
0
40
0
40
0
40
1
40
1
40
1
10
94.55986031424807
20
67.788280321557167
30
0
10
94.770629947262037
20
68.120048577508129
30
0
10
95.181168648022734
20
68.295689709626643
30
0
0
SPLINE
5
174
100
AcDbEntity
8
0
100
AcDbSpline
70
0
71
2
72
6
73
3
74
0
42
0.000000001
43
0.0000000001
44
0.0000000001
40
0
40
0
40
0
40
1
40
1
40
1
10
95.181168648022734
20
68.295689709626643
30
0
10
95.591708544483453
20
68.471330558540643
30
0
10
96.096444710633875
20
68.477595617099908
30
0
0
SPLINE
5
175
100
AcDbEntity
8
0
100
AcDbSpline
70
0
71
2
72
6
73
3
74
0
42
0.000000001
43
0.0000000001
44
0.0000000001
40
0
40
0
40
0
40
1
40
1
40
1
10
96.096444710633875
20
68.477595617099908
30
0
10
96.652335602812201
20
68.484495635813886
30
0
10
97.079149978080494
20
68.310721082169891
30
0
0
SPLINE
5
176
100
AcDbEntity
8
0
100
AcDbSpline
70
0
71
2
72
6
73
3
74
0
42
0.000000001
43
0.0000000001
44
0.0000000001
40
0
40
0
40
0
40
1
40
1
40
1
10
97.079149978080494
20
68.310721082169891
30
0
10
97.505964353348787
20
68.136946528525897
30
0
10
97.738778041373067
20
67.791924050071103
30
0
0
SPLINE
5
177
100
AcDbEntity
8
0
100
AcDbSpline
70
0
71
2
72
6
73
3
74
0
42
0.000000001
43
0.0000000001
44
0.0000000001
40
0
40
0
40
0
40
1
40
1
40
1
10
97.738778041373067
20
67.791924050071103
30
0
10
97.971590533697324
20
67.446901854820837
30
0
10
97.994104061941897
20
67.007174535154135
30
0
0
LINE
5
178
100
AcDbEntity
8
0
100
AcDbLine
10
97.994104061941897
20
67.007174535154135
30
0
11
97.360366179759893
21
66.951555576317901
31
0
0
SPLINE
5
179
100
AcDbEntity
8
0
100
AcDbSpline
70
0
71
2
72
6
73
3
74
0
42
0.000000001
43
0.0000000001
44
0.0000000001
40
0
40
0
40
0
40
1
40
1
40
1
10
97.360366179759865
20
66.951555576317901
30
0
10
97.30332618666236
20
67.424963335900586
30
0
10
97.005323035680277
20
67.663438505630182
30
0
0
SPLINE
5
180
100
AcDbEntity
8
0
100
AcDbSpline
70
0
71
2
72
6
73
3
74
0
42
0.000000001
43
0.0000000001
44
0.0000000001
40
0
40
0
40
0
40
1
40
1
40
1
10
97.005323035680277
20
67.663438505630182
30
0
10
96.707319884698222
20
67.901913675359779
30
0
10
96.130965910107662
20
67.894759657788157
30
0
0
SPLINE
5
181
100
AcDbEntity
8
0
100
AcDbSpline
70
0
71
2
72
6
73
3
74
0
42
0.000000001
43
0.0000000001
44
0.0000000001
40
0
40
0
40
0
40
1
40
1
40
1
10
96.130965910107662
20
67.894759657788157
30
0
10
95.530738538036374
20
67.8873093106819
30
0
10
95.258934383466695
20
67.663932145476082
30
0
0
SPLINE
5
182
100
AcDbEntity
8
0
100
AcDbSpline
70
0
71
2
72
6
73
3
74
0
42
0.000000001
43
0.0000000001
44
0.0000000001
40
0
40
0
40
0
40
1
40
1
40
1
10
95.258934383466695
20
67.663932145476082
30
0
10
94.987129033197021
20
67.440555263474792
30
0
10
94.9909811987811
20
67.130210632233556
30
0
0
SPLINE
5
183
100
AcDbEntity
8
0
100
AcDbSpline
70
0
71
2
72
6
73
3
74
0
42
0.000000001
43
0.0000000001
44
0.0000000001
40
0
40
0
40
0
40
1
40
1
40
1
10
94.9909811987811
20
67.130210632233556
30
0
10
94.99432538144562
20
66.86079097381571
30
0
10
95.190875821569193
20
66.689274520293139
30
0
0
SPLINE
5
184
100
AcDbEntity
8
0
100
AcDbSpline
70
0
71
2
72
6
73
3
74
0
42
0.000000001
43
0.0000000001
44
0.0000000001
40
0
40
0
40
0
40
1
40
1
40
1
10
95.190875821569193
20
66.689274520293139
30
0
10
95.384015946624231
20
66.517715736093578
30
0
10
96.19283509225086
20
66.345271991977484
30
0
0
SPLINE
5
185
100
AcDbEntity
8
0
100
AcDbSpline
70
0
71
2
72
6
73
3
74
0
42
0.000000001
43
0.0000000001
44
0.0000000001
40
0
40
0
40
0
40
1
40
1
40
1
10
96.19283509225086
20
66.345271991977484
30
0
10
97.001654241576432
20
66.17282794986113
30
0
10
97.303461184282853
20
66.040138136671061
30
0
0
SPLINE
5
186
100
AcDbEntity
8
0
100
AcDbSpline
70
0
71
2
72
6
73
3
74
0
42
0.000000001
43
0.0000000001
44
0.0000000001
40
0
40
0
40
0
40
1
40
1
40
1
10
97.303461184282853
20
66.040138136671061
30
0
10
97.742487418788713
20
65.844343805848155
30
0
10
97.954351206819723
20
65.538287143824846
30
0
0
SPLINE
5
187
100
AcDbEntity
8
0
100
AcDbSpline
70
0
71
2
72
6
73
3
74
0
42
0.000000001
43
0.0000000001
44
0.0000000001
40
0
40
0
40
0
40
1
40
1
40
1
10
97.954351206819723
20
65.538287143824846
30
0
10
98.166215002248606
20
65.232229885801004
30
0
10
98.171210110906912
20
64.829805555708504
30
0
0
SPLINE
5
188
100
AcDbEntity
8
0
100
AcDbSpline
70
0
71
2
72
6
73
3
74
0
42
0.000000001
43
0.0000000001
44
0.0000000001
40
0
40
0
40
0
40
1
40
1
40
1
10
98.171210110906912
20
64.829805555708504
30
0
10
98.176162896286115
20
64.430790944683991
30
0
10
97.952049517135876
20
64.074980579340647
30
0
0
SPLINE
5
189
100
AcDbEntity
8
0
100
AcDbSpline
70
0
71
2
72
6
73
3
74
0
42
0.000000001
43
0.0000000001
44
0.0000000001
40
0
40
0
40
0
40
1
40
1
40
1
10
97.952049517135876
20
64.074980579340647
30
0
10
97.727934938586685
20
63.719170795202075
30
0
10
97.302366715191241
20
63.517760910624517
30
0
0
SPLINE
5
190
100
AcDbEntity
8
0
100
AcDbSpline
70
0
71
2
72
6
73
3
74
0
42
0.000000001
43
0.0000000001
44
0.0000000001
40
0
40
0
40
0
40
1
40
1
40
1
10
97.302366715191241
20
63.517760910624517
30
0
10
96.876797292396887
20
63.31635160725174
30
0
10
96.341368290629703
20
63.309705572599654
30
0
0
SPLINE
5
191
100
AcDbEntity
8
0
100
AcDbSpline
70
0
71
2
72
6
73
3
74
0
42
0.000000001
43
0.0000000001
44
0.0000000001
40
0
40
0
40
0
40
1
40
1
40
1
10
96.341368290629703
20
63.309705572599654
30
0
10
95.662703671982314
20
63.30128161992284
30
0
10
95.201552131605354
20
63.493389882878418
30
0
0
SPLINE
5
192
100
AcDbEntity
8
0
100
AcDbSpline
70
0
71
2
72
6
73
3
74
0
42
0.000000001
43
0.0000000001
44
0.0000000001
40
0
40
0
40
0
40
1
40
1
40
1
10
95.201552131605354
20
63.493389882878418
30
0
10
94.740400583830507
20
63.685498741834543
30
0
10
94.474575696441661
20
64.079569250750055
30
0
0
SPLINE
5
193
100
AcDbEntity
8
0
100
AcDbSpline
70
0
71
2
72
6
73
3
74
0
42
0.000000001
43
0.0000000001
44
0.0000000001
40
0
40
0
40
0
40
1
40
1
40
1
10
94.474575696441661
20
64.079569250750055
30
0
10
94.208749617051751
20
64.4736397448698
30
0
10
94.188885628895363
20
64.974796273243783
30
0
0
LINE
5
194
100
AcDbEntity
8
0
100
AcDbLine
10
99.205028299121665
20
63.430523671787633
30
0
11
99.142970372598299
21
68.430138538330411
31
0
0
LINE
5
195
100
AcDbEntity
8
0
100
AcDbLine
10
99.142970372598285
20
68.430138538330411
30
0
11
99.804583415903053
21
68.438350837622323
31
0
0
LINE
5
196
100
AcDbEntity
8
0
100
AcDbLine
10
99.804583415903068
20
68.438350837622323
30
0
11
99.866641342426433
21
63.438735971079538
31
0
0
LINE
5
197
100
AcDbEntity
8
0
100
AcDbLine
10
99.866641342426433
20
63.438735971079538
30
0
11
99.205028299121665
21
63.430523671787633
31
0
0
LINE
5
198
100
AcDbEntity
8
0
100
AcDbLine
10
104.25171770533606
20
68.493551076108716
30
0
11
104.91333074864082
21
68.501763375400614
31
0
0
LINE
5
199
100
AcDbEntity
8
0
100
AcDbLine
10
104.91333074864082
20
68.501763375400614
30
0
11
104.94918549785289
21
65.613172872310827
31
0
0
SPLINE
5
200
100
AcDbEntity
8
0
100
AcDbSpline
70
0
71
2
72
6
73
3
74
0
42
0.000000001
43
0.0000000001
44
0.0000000001
40
0
40
0
40
0
40
1
40
1
40
1
10
104.94918549785289
20
65.613172872310827
30
0
10
104.95854075501481
20
64.859478938153714
30
0
10
104.79352570176633
20
64.414013667797789
30
0
0
SPLINE
5
201
100
AcDbEntity
8
0
100
AcDbSpline
70
0
71
2
72
6
73
3
74
0
42
0.000000001
43
0.0000000001
44
0.0000000001
40
0
40
0
40
0
40
1
40
1
40
1
10
104.79352570176633
20
64.414013667797789
30
0
10
104.62850827191359
20
63.968547771849813
30
0
10
104.18690561621992
20
63.685077495037419
30
0
0
SPLINE
5
202
100
AcDbEntity
8
0
100
AcDbSpline
70
0
71
2
72
6
73
3
74
0
42
0.000000001
43
0.0000000001
44
0.0000000001
40
0
40
0
40
0
40
1
40
1
40
1
10
104.18690561621992
20
63.685077495037419
30
0
10
103.74530057652409
20
63.401607188633513
30
0
10
103.02230066998477
20
63.392632922360185
30
0
0
SPLINE
5
203
100
AcDbEntity
8
0
100
AcDbSpline
70
0
71
2
72
6
73
3
74
0
42
0.000000001
43
0.0000000001
44
0.0000000001
40
0
40
0
40
0
40
1
40
1
40
1
10
103.02230066998477
20
63.392632922360185
30
0
10
102.31976265385661
20
63.383912640148736
30
0
10
101.86999749862352
20
63.620504355763558
30
0
0
SPLINE
5
204
100
AcDbEntity
8
0
100
AcDbSpline
70
0
71
2
72
6
73
3
74
0
42
0.000000001
43
0.0000000001
44
0.0000000001
40
0
40
0
40
0
40
1
40
1
40
1
10
101.86999749862352
20
63.620504355763558
30
0
10
101.42023234339042
20
63.857096071378351
30
0
10
101.22355754392547
20
64.313421229804405
30
0
0
SPLINE
5
205
100
AcDbEntity
8
0
100
AcDbSpline
70
0
71
2
72
6
73
3
74
0
42
0.000000001
43
0.0000000001
44
0.0000000001
40
0
40
0
40
0
40
1
40
1
40
1
10
101.22355754392547
20
64.313421229804405
30
0
10
101.02688274446055
20
64.769746388230445
30
0
10
101.01701951177699
20
65.564364699210401
30
0
0
LINE
5
206
100
AcDbEntity
8
0
100
AcDbLine
10
101.01701951177699
20
65.564364699210401
30
0
11
100.98116476256492
21
68.452955202300188
31
0
0
LINE
5
207
100
AcDbEntity
8
0
100
AcDbLine
10
100.98116476256492
20
68.452955202300203
30
0
11
101.64277780586968
21
68.461167501592101
31
0
0
LINE
5
208
100
AcDbEntity
8
0
100
AcDbLine
10
101.64277780586968
20
68.461167501592101
30
0
11
101.67859022440479
21
65.575987313570835
31
0
0
SPLINE
5
209
100
AcDbEntity
8
0
100
AcDbSpline
70
0
71
2
72
6
73
3
74
0
42
0.000000001
43
0.0000000001
44
0.0000000001
40
0
40
0
40
0
40
1
40
1
40
1
10
101.67859022440479
20
65.575987313570835
30
0
10
101.68667553536467
20
64.924604917471385
30
0
10
101.81157569684669
20
64.617468517786904
30
0
0
SPLINE
5
210
100
AcDbEntity
8
0
100
AcDbSpline
70
0
71
2
72
6
73
3
74
0
42
0.000000001
43
0.0000000001
44
0.0000000001
40
0
40
0
40
0
40
1
40
1
40
1
10
101.81157569684669
20
64.617468517786904
30
0
10
101.93647467002654
20
64.310331805306404
30
0
10
102.23354652762032
20
64.146885057085726
30
0
0
SPLINE
5
211
100
AcDbEntity
8
0
100
AcDbSpline
70
0
71
2
72
6
73
3
74
0
42
0.000000001
43
0.0000000001
44
0.0000000001
40
0
40
0
40
0
40
1
40
1
40
1
10
102.23354652762032
20
64.146885057085726
30
0
10
102.53061838521411
20
63.98343830886504
30
0
10
102.95691611278738
20
63.988729747057988
30
0
0
SPLINE
5
212
100
AcDbEntity
8
0
100
AcDbSpline
70
0
71
2
72
6
73
3
74
0
42
0.000000001
43
0.0000000001
44
0.0000000001
40
0
40
0
40
0
40
1
40
1
40
1
10
102.95691611278738
20
63.988729747057988
30
0
10
103.68673664946374
20
63.997788674685275
30
0
10
103.99297513105901
20
64.332447361921723
30
0
0
SPLINE
5
213
100
AcDbEntity
8
0
100
AcDbSpline
70
0
71
2
72
6
73
3
74
0
42
0.000000001
43
0.0000000001
44
0.0000000001
40
0
40
0
40
0
40
1
40
1
40
1
10
103.99297513105901
20
64.332447361921723
30
0
10
104.29921360525641
20
64.667106645158711
30
0
10
104.28753012387114
20
65.60837088808745
30
0
0
LINE
5
214
100
AcDbEntity
8
0
100
AcDbLine
10
104.28753012387114
20
65.60837088808745
30
0
11
104.25171770533603
21
68.493551076108716
31
0
0
LINE
5
215
100
AcDbEntity
8
0
100
AcDbLine
10
106.05647881590517
20
63.51556758498873
30
0
11
105.99442088938181
21
68.515182451531516
31
0
0
LINE
5
216
100
AcDbEntity
8
0
100
AcDbLine
10
105.99442088938179
20
68.515182451531516
30
0
11
106.99025196140855
21
68.527543245942127
31
0
0
LINE
5
217
100
AcDbEntity
8
0
100
AcDbLine
10
106.99025196140855
20
68.527543245942127
30
0
11
108.21759161437728
21
65.002259343193188
31
0
0
SPLINE
5
218
100
AcDbEntity
8
0
100
AcDbSpline
70
0
71
2
72
6
73
3
74
0
42
0.000000001
43
0.0000000001
44
0.0000000001
40
0
40
0
40
0
40
1
40
1
40
1
10
108.21759161437728
20
65.002259343193188
30
0
10
108.38742956850021
20
64.509786351926721
30
0
10
108.46550436053556
20
64.265170769882673
30
0
0
SPLINE
5
219
100
AcDbEntity
8
0
100
AcDbSpline
70
0
71
2
72
6
73
3
74
0
42
0.000000001
43
0.0000000001
44
0.0000000001
40
0
40
0
40
0
40
1
40
1
40
1
10
108.46550436053556
20
64.265170769882673
30
0
10
108.54737691590827
20
64.53905902508933
30
0
10
108.72156581354631
20
65.069911264986985
30
0
0
LINE
5
220
100
AcDbEntity
8
0
100
AcDbLine
10
108.72156581354631
20
65.069911264986985
30
0
11
109.87543095742876
21
68.563355649681469
31
0
0
LINE
5
221
100
AcDbEntity
8
0
100
AcDbLine
10
109.87543095742876
20
68.563355649681455
30
0
11
110.76554107033013
21
68.574404178309891
31
0
0
LINE
5
222
100
AcDbEntity
8
0
100
AcDbLine
10
110.76554107033012
20
68.574404178309891
30
0
11
110.82759899685348
21
63.574789311767113
31
0
0
LINE
5
223
100
AcDbEntity
8
0
100
AcDbLine
10
110.8275989968535
20
63.574789311767113
30
0
11
110.18985696702734
21
63.566873312418302
31
0
0
LINE
5
224
100
AcDbEntity
8
0
100
AcDbLine
10
110.18985696702734
20
63.566873312418309
30
0
11
110.13791626094836
21
67.751407679569709
31
0
0
LINE
5
225
100
AcDbEntity
8
0
100
AcDbLine
10
110.13791626094836
20
67.751407679569709
30
0
11
108.73703652381167
21
63.548840118517695
31
0
0
LINE
5
226
100
AcDbEntity
8
0
100
AcDbLine
10
108.73703652381167
20
63.548840118517695
30
0
11
108.14022065880997
21
63.541432116884181
31
0
0
LINE
5
227
100
AcDbEntity
8
0
100
AcDbLine
10
108.14022065880994
20
63.541432116884181
30
0
11
106.64138879293888
21
67.779636028337791
31
0
0
LINE
5
228
100
AcDbEntity
8
0
100
AcDbLine
10
106.6413887929389
20
67.779636028337791
30
0
11
106.69421846172918
21
63.523483554746008
31
0
0
LINE
5
229
100
AcDbEntity
8
0
100
AcDbLine
10
106.69421846172918
20
63.523483554746008
30
0
11
106.05647881590517
21
63.51556758498873
31
0
0
LINE
5
230
100
AcDbEntity
8
0
100
AcDbLine
10
87.120759264243105
20
59.81226337088664
30
0
11
87.650090829146365
21
59.678566278353529
31
0
0
SPLINE
5
231
100
AcDbEntity
8
0
100
AcDbSpline
70
0
71
2
72
6
73
3
74
0
42
0.000000001
43
0.0000000001
44
0.0000000001
40
0
40
0
40
0
40
1
40
1
40
1
10
87.650090829146365
20
59.678566278353529
30
0
10
87.483651415122011
20
59.02645182742198
30
0
10
87.051182166350344
20
58.684023441210584
30
0
0
SPLINE
5
232
100
AcDbEntity
8
0
100
AcDbSpline
70
0
71
2
72
6
73
3
74
0
42
0.000000001
43
0.0000000001
44
0.0000000001
40
0
40
0
40
0
40
1
40
1
40
1
10
87.051182166350344
20
58.684023441210584
30
0
10
86.618712917578677
20
58.341595054999189
30
0
10
85.993883386862734
20
58.341595054999189
30
0
0
SPLINE
5
233
100
AcDbEntity
8
0
100
AcDbSpline
70
0
71
2
72
6
73
3
74
0
42
0.000000001
43
0.0000000001
44
0.0000000001
40
0
40
0
40
0
40
1
40
1
40
1
10
85.993883386862734
20
58.341595054999189
30
0
10
85.347225741160372
20
58.341595054999189
30
0
10
84.942041561615923
20
58.60489648713191
30
0
0
SPLINE
5
234
100
AcDbEntity
8
0
100
AcDbSpline
70
0
71
2
72
6
73
3
74
0
42
0.000000001
43
0.0000000001
44
0.0000000001
40
0
40
0
40
0
40
1
40
1
40
1
10
84.942041561615923
20
58.60489648713191
30
0
10
84.536857382071474
20
58.868197919264631
30
0
10
84.325397685778597
20
59.367515863314466
30
0
0
SPLINE
5
235
100
AcDbEntity
8
0
100
AcDbSpline
70
0
71
2
72
6
73
3
74
0
42
0.000000001
43
0.0000000001
44
0.0000000001
40
0
40
0
40
0
40
1
40
1
40
1
10
84.325397685778597
20
59.367515863314466
30
0
10
84.113937914979914
20
59.866833807364301
30
0
10
84.113937914979914
20
60.439821304217176
30
0
0
SPLINE
5
236
100
AcDbEntity
8
0
100
AcDbSpline
70
0
71
2
72
6
73
3
74
0
42
0.000000001
43
0.0000000001
44
0.0000000001
40
0
40
0
40
0
40
1
40
1
40
1
10
84.113937914979914
20
60.439821304217176
30
0
10
84.113937914979914
20
61.064650834933119
30
0
10
84.352682792258719
20
61.529862405196027
30
0
0
SPLINE
5
237
100
AcDbEntity
8
0
100
AcDbSpline
70
0
71
2
72
6
73
3
74
0
42
0.000000001
43
0.0000000001
44
0.0000000001
40
0
40
0
40
0
40
1
40
1
40
1
10
84.352682792258719
20
61.529862405196027
30
0
10
84.591427669537524
20
61.995073975458936
30
0
10
85.032082498682001
20
62.236547292605238
30
0
0
SPLINE
5
238
100
AcDbEntity
8
0
100
AcDbSpline
70
0
71
2
72
6
73
3
74
0
42
0.000000001
43
0.0000000001
44
0.0000000001
40
0
40
0
40
0
40
1
40
1
40
1
10
85.032082498682001
20
62.236547292605238
30
0
10
85.472737327826479
20
62.478020609751539
30
0
10
86.002068892729739
20
62.478020609751539
30
0
0
SPLINE
5
239
100
AcDbEntity
8
0
100
AcDbSpline
70
0
71
2
72
6
73
3
74
0
42
0.000000001
43
0.0000000001
44
0.0000000001
40
0
40
0
40
0
40
1
40
1
40
1
10
86.002068892729739
20
62.478020609751539
30
0
10
86.602341607821444
20
62.478020609751539
30
0
10
87.011618689311007
20
62.172427297964887
30
0
0
SPLINE
5
240
100
AcDbEntity
8
0
100
AcDbSpline
70
0
71
2
72
6
73
3
74
0
42
0.000000001
43
0.0000000001
44
0.0000000001
40
0
40
0
40
0
40
1
40
1
40
1
10
87.011618689311007
20
62.172427297964887
30
0
10
87.42089577080057
20
61.866833688155012
30
0
10
87.581877783549288
20
61.312945605650739
30
0
0
LINE
5
241
100
AcDbEntity
8
0
100
AcDbLine
10
87.581877783549288
20
61.312945605650739
30
0
11
87.060732022536257
21
61.190162421599226
31
0
0
SPLINE
5
242
100
AcDbEntity
8
0
100
AcDbSpline
70
0
71
2
72
6
73
3
74
0
42
0.000000001
43
0.0000000001
44
0.0000000001
40
0
40
0
40
0
40
1
40
1
40
1
10
87.060732022536257
20
61.190162421599226
30
0
10
86.921577826750735
20
61.626724721327619
30
0
10
86.656912044299105
20
61.82590615881999
30
0
0
SPLINE
5
243
100
AcDbEntity
8
0
100
AcDbSpline
70
0
71
2
72
6
73
3
74
0
42
0.000000001
43
0.0000000001
44
0.0000000001
40
0
40
0
40
0
40
1
40
1
40
1
10
86.656912044299105
20
61.82590615881999
30
0
10
86.392246261847475
20
62.02508759631236
30
0
10
85.991154686224917
20
62.02508759631236
30
0
0
SPLINE
5
244
100
AcDbEntity
8
0
100
AcDbSpline
70
0
71
2
72
6
73
3
74
0
42
0.000000001
43
0.0000000001
44
0.0000000001
40
0
40
0
40
0
40
1
40
1
40
1
10
85.991154686224917
20
62.02508759631236
30
0
10
85.530036166918734
20
62.02508759631236
30
0
10
85.220349804175356
20
61.80407804383357
30
0
0
SPLINE
5
245
100
AcDbEntity
8
0
100
AcDbSpline
70
0
71
2
72
6
73
3
74
0
42
0.000000001
43
0.0000000001
44
0.0000000001
40
0
40
0
40
0
40
1
40
1
40
1
10
85.220349804175356
20
61.80407804383357
30
0
10
84.910663664949396
20
61.58306849135478
30
0
10
84.785152078283289
20
61.210626484289961
30
0
0
SPLINE
5
246
100
AcDbEntity
8
0
100
AcDbSpline
70
0
71
2
72
6
73
3
74
0
42
0.000000001
43
0.0000000001
44
0.0000000001
40
0
40
0
40
0
40
1
40
1
40
1
10
84.785152078283289
20
61.210626484289961
30
0
10
84.659640491617182
20
60.838184179201917
30
0
10
84.659640491617182
20
60.442550004854994
30
0
0
SPLINE
5
247
100
AcDbEntity
8
0
100
AcDbSpline
70
0
71
2
72
6
73
3
74
0
42
0.000000001
43
0.0000000001
44
0.0000000001
40
0
40
0
40
0
40
1
40
1
40
1
10
84.659640491617182
20
60.442550004854994
30
0
10
84.659640491617182
20
59.93231815232356
30
0
10
84.808344469082812
20
59.551690341368513
30
0
0
SPLINE
5
248
100
AcDbEntity
8
0
100
AcDbSpline
70
0
71
2
72
6
73
3
74
0
42
0.000000001
43
0.0000000001
44
0.0000000001
40
0
40
0
40
0
40
1
40
1
40
1
10
84.808344469082812
20
59.551690341368513
30
0
10
84.957048372042635
20
59.171062828436689
30
0
10
85.270827487719515
20
58.98279559744914
30
0
0
SPLINE
5
249
100
AcDbEntity
8
0
100
AcDbSpline
70
0
71
2
72
6
73
3
74
0
42
0.000000001
43
0.0000000001
44
0.0000000001
40
0
40
0
40
0
40
1
40
1
40
1
10
85.270827487719515
20
58.98279559744914
30
0
10
85.584606305373171
20
58.794528068438368
30
0
10
85.950227156889895
20
58.794528068438368
30
0
0
SPLINE
5
250
100
AcDbEntity
8
0
100
AcDbSpline
70
0
71
2
72
6
73
3
74
0
42
0.000000001
43
0.0000000001
44
0.0000000001
40
0
40
0
40
0
40
1
40
1
40
1
10
85.950227156889895
20
58.794528068438368
30
0
10
86.394974664462069
20
58.794528068438368
30
0
10
86.703296676886538
20
59.051008345022993
30
0
0
SPLINE
5
251
100
AcDbEntity
8
0
100
AcDbSpline
70
0
71
2
72
6
73
3
74
0
42
0.000000001
43
0.0000000001
44
0.0000000001
40
0
40
0
40
0
40
1
40
1
40
1
10
86.703296676886538
20
59.051008345022993
30
0
10
87.011618689311007
20
59.307488621607618
30
0
10
87.120759264243105
20
59.81226337088664
30
0
0
LINE
5
252
100
AcDbEntity
8
0
100
AcDbLine
10
88.217621222746828
20
57.293846131697492
30
0
11
88.163050786269167
21
57.754964949026899
31
0
0
SPLINE
5
253
100
AcDbEntity
8
0
100
AcDbSpline
70
0
71
2
72
6
73
3
74
0
42
0.000000001
43
0.0000000001
44
0.0000000001
40
0
40
0
40
0
40
1
40
1
40
1
10
88.163050786269167
20
57.754964949026899
30
0
10
88.324033097041109
20
57.71130871905406
30
0
10
88.44408787847803
20
57.71130871905406
30
0
0
SPLINE
5
254
100
AcDbEntity
8
0
100
AcDbSpline
70
0
71
2
72
6
73
3
74
0
42
0.000000001
43
0.0000000001
44
0.0000000001
40
0
40
0
40
0
40
1
40
1
40
1
10
88.44408787847803
20
57.71130871905406
30
0
10
88.607798591864565
20
57.71130871905406
30
0
10
88.706024960291842
20
57.765878559485273
30
0
0
SPLINE
5
255
100
AcDbEntity
8
0
100
AcDbSpline
70
0
71
2
72
6
73
3
74
0
42
0.000000001
43
0.0000000001
44
0.0000000001
40
0
40
0
40
0
40
1
40
1
40
1
10
88.706024960291842
20
57.765878559485273
30
0
10
88.804251328719118
20
57.820448995962934
30
0
10
88.867007271063784
20
57.918675662413435
30
0
0
SPLINE
5
256
100
AcDbEntity
8
0
100
AcDbSpline
70
0
71
2
72
6
73
3
74
0
42
0.000000001
43
0.0000000001
44
0.0000000001
40
0
40
0
40
0
40
1
40
1
40
1
10
88.867007271063784
20
57.918675662413435
30
0
10
88.913392201674441
20
57.992345215216474
30
0
10
89.017075673354128
20
58.284295917883711
30
0
0
SPLINE
5
257
100
AcDbEntity
8
0
100
AcDbSpline
70
0
71
2
72
6
73
3
74
0
42
0.000000001
43
0.0000000001
44
0.0000000001
40
0
40
0
40
0
40
1
40
1
40
1
10
89.017075673354128
20
58.284295917883711
30
0
10
89.03071798445032
20
58.32522404326518
30
0
10
89.060731903326968
20
58.404350997343855
30
0
0
LINE
5
258
100
AcDbEntity
8
0
100
AcDbLine
10
89.060731903326968
20
58.404350997343855
30
0
11
87.961140946162203
21
61.307488800421552
31
0
0
LINE
5
259
100
AcDbEntity
8
0
100
AcDbLine
10
87.961140946162203
20
61.307488800421552
30
0
11
88.490472511065462
21
61.307488800421552
31
0
0
LINE
5
260
100
AcDbEntity
8
0
100
AcDbLine
10
88.490472511065462
20
61.307488800421552
30
0
11
89.093473926794985
21
59.629452945128278
31
0
0
SPLINE
5
261
100
AcDbEntity
8
0
100
AcDbSpline
70
0
71
2
72
6
73
3
74
0
42
0.000000001
43
0.0000000001
44
0.0000000001
40
0
40
0
40
0
40
1
40
1
40
1
10
89.093473926794985
20
59.629452945128278
30
0
10
89.210799709570864
20
59.310217024222212
30
0
10
89.30356897474573
20
58.958239079848127
30
0
0
SPLINE
5
262
100
AcDbEntity
8
0
100
AcDbSpline
70
0
71
2
72
6
73
3
74
0
42
0.000000001
43
0.0000000001
44
0.0000000001
40
0
40
0
40
0
40
1
40
1
40
1
10
89.30356897474573
20
58.958239079848127
30
0
10
89.388153330100039
20
59.29657471312602
30
0
10
89.505479112875918
20
59.618539036646681
30
0
0
LINE
5
263
100
AcDbEntity
8
0
100
AcDbLine
10
89.505479112875918
20
59.618539036646681
30
0
11
90.124851838362673
21
61.307488800421552
31
0
0
LINE
5
264
100
AcDbEntity
8
0
100
AcDbLine
10
90.124851838362673
20
61.307488800421552
30
0
11
90.61598397852228
21
61.307488800421552
31
0
0
LINE
5
265
100
AcDbEntity
8
0
100
AcDbLine
10
90.61598397852228
20
61.307488800421552
30
0
11
89.513664618742922
21
58.360694767371015
31
0
0
SPLINE
5
266
100
AcDbEntity
8
0
100
AcDbSpline
70
0
71
2
72
6
73
3
74
0
42
0.000000001
43
0.0000000001
44
0.0000000001
40
0
40
0
40
0
40
1
40
1
40
1
10
89.513664618742922
20
58.360694767371015
30
0
10
89.336311594260195
20
57.8832049383076
30
0
10
89.238084927809695
20
57.703123213187055
30
0
0
SPLINE
5
267
100
AcDbEntity
8
0
100
AcDbSpline
70
0
71
2
72
6
73
3
74
0
42
0.000000001
43
0.0000000001
44
0.0000000001
40
0
40
0
40
0
40
1
40
1
40
1
10
89.238084927809695
20
57.703123213187055
30
0
10
89.107116237891177
20
57.460285545721845
30
0
10
88.937948719275454
20
57.347052217856245
30
0
0
SPLINE
5
268
100
AcDbEntity
8
0
100
AcDbSpline
70
0
71
2
72
6
73
3
74
0
42
0.000000001
43
0.0000000001
44
0.0000000001
40
0
40
0
40
0
40
1
40
1
40
1
10
88.937948719275454
20
57.347052217856245
30
0
10
88.768780604613283
20
57.233818889990644
30
0
10
88.534128741038302
20
57.233818889990644
30
0
0
SPLINE
5
269
100
AcDbEntity
8
0
100
AcDbSpline
70
0
71
2
72
6
73
3
74
0
42
0.000000001
43
0.0000000001
44
0.0000000001
40
0
40
0
40
0
40
1
40
1
40
1
10
88.534128741038302
20
57.233818889990644
30
0
10
88.392246142638186
20
57.233818889990644
30
0
10
88.217621222746828
20
57.293846131697492
30
0
0
LINE
5
270
100
AcDbEntity
8
0
100
AcDbLine
10
91.48637987734125
20
58.409807802573042
30
0
11
91.030718461287478
21
58.409807802573042
31
0
0
LINE
5
271
100
AcDbEntity
8
0
100
AcDbLine
10
91.030718461287478
20
58.409807802573042
30
0
11
91.030718461287478
21
62.409807564154463
31
0
0
LINE
5
272
100
AcDbEntity
8
0
100
AcDbLine
10
91.030718461287478
20
62.409807564154463
30
0
11
91.521850601447085
21
62.409807564154463
31
0
0
LINE
5
273
100
AcDbEntity
8
0
100
AcDbLine
10
91.521850601447085
20
62.409807564154463
30
0
11
91.521850601447085
21
60.982795478239851
31
0
0
SPLINE
5
274
100
AcDbEntity
8
0
100
AcDbSpline
70
0
71
2
72
6
73
3
74
0
42
0.000000001
43
0.0000000001
44
0.0000000001
40
0
40
0
40
0
40
1
40
1
40
1
10
91.521850601447085
20
60.982795478239851
30
0
10
91.832901016486147
20
61.372972847357588
30
0
10
92.315848246825198
20
61.372972847357588
30
0
0
SPLINE
5
275
100
AcDbEntity
8
0
100
AcDbSpline
70
0
71
2
72
6
73
3
74
0
42
0.000000001
43
0.0000000001
44
0.0000000001
40
0
40
0
40
0
40
1
40
1
40
1
10
92.315848246825198
20
61.372972847357588
30
0
10
92.583242431891421
20
61.372972847357588
30
0
10
92.821987048399905
20
61.265196622744398
30
0
0
SPLINE
5
276
100
AcDbEntity
8
0
100
AcDbSpline
70
0
71
2
72
6
73
3
74
0
42
0.000000001
43
0.0000000001
44
0.0000000001
40
0
40
0
40
0
40
1
40
1
40
1
10
92.821987048399905
20
61.265196622744398
30
0
10
93.060732260954836
20
61.157420398131208
30
0
10
93.214893118155459
20
60.96233171357234
30
0
0
SPLINE
5
277
100
AcDbEntity
8
0
100
AcDbSpline
70
0
71
2
72
6
73
3
74
0
42
0.000000001
43
0.0000000001
44
0.0000000001
40
0
40
0
40
0
40
1
40
1
40
1
10
93.214893118155459
20
60.96233171357234
30
0
10
93.369053975356081
20
60.767243029013471
30
0
10
93.45636643530176
20
60.491663338080244
30
0
0
SPLINE
5
278
100
AcDbEntity
8
0
100
AcDbSpline
70
0
71
2
72
6
73
3
74
0
42
0.000000001
43
0.0000000001
44
0.0000000001
40
0
40
0
40
0
40
1
40
1
40
1
10
93.45636643530176
20
60.491663338080244
30
0
10
93.543678895247439
20
60.216083349123792
30
0
10
93.543678895247439
20
59.902304531470136
30
0
0
SPLINE
5
279
100
AcDbEntity
8
0
100
AcDbSpline
70
0
71
2
72
6
73
3
74
0
42
0.000000001
43
0.0000000001
44
0.0000000001
40
0
40
0
40
0
40
1
40
1
40
1
10
93.543678895247439
20
59.902304531470136
30
0
10
93.543678895247439
20
59.157420517340498
30
0
10
93.175329343092898
20
58.750871838465528
30
0
0
SPLINE
5
280
100
AcDbEntity
8
0
100
AcDbSpline
70
0
71
2
72
6
73
3
74
0
42
0.000000001
43
0.0000000001
44
0.0000000001
40
0
40
0
40
0
40
1
40
1
40
1
10
93.175329343092898
20
58.750871838465528
30
0
10
92.806980386984804
20
58.344323755637006
30
0
10
92.291291133177737
20
58.344323755637006
30
0
0
SPLINE
5
281
100
AcDbEntity
8
0
100
AcDbSpline
70
0
71
2
72
6
73
3
74
0
42
0.000000001
43
0.0000000001
44
0.0000000001
40
0
40
0
40
0
40
1
40
1
40
1
10
92.291291133177737
20
58.344323755637006
30
0
10
91.778331176054934
20
58.344323755637006
30
0
10
91.48637987734125
20
58.772699953451948
30
0
0
LINE
5
282
100
AcDbEntity
8
0
100
AcDbLine
10
91.48637987734125
20
58.772699953451948
30
0
11
91.48637987734125
21
58.409807802573042
31
0
0
SPLINE
5
283
100
AcDbEntity
8
0
100
AcDbSpline
70
0
71
2
72
6
73
3
74
0
42
0.000000001
43
0.0000000001
44
0.0000000001
40
0
40
0
40
0
40
1
40
1
40
1
10
91.480923072112063
20
59.880476118460493
30
0
10
91.480923072112063
20
59.359330357447462
30
0
10
91.622805968535403
20
59.12740659846385
30
0
0
SPLINE
5
284
100
AcDbEntity
8
0
100
AcDbSpline
70
0
71
2
72
6
73
3
74
0
42
0.000000001
43
0.0000000001
44
0.0000000001
40
0
40
0
40
0
40
1
40
1
40
1
10
91.622805968535403
20
59.12740659846385
30
0
10
91.854729429495791
20
58.748143435850935
30
0
10
92.250363603842715
20
58.748143435850935
30
0
0
SPLINE
5
285
100
AcDbEntity
8
0
100
AcDbSpline
70
0
71
2
72
6
73
3
74
0
42
0.000000001
43
0.0000000001
44
0.0000000001
40
0
40
0
40
0
40
1
40
1
40
1
10
92.250363603842715
20
58.748143435850935
30
0
10
92.572328225386599
20
58.748143435850935
30
0
10
92.806980386984804
20
59.027815879717664
30
0
0
SPLINE
5
286
100
AcDbEntity
8
0
100
AcDbSpline
70
0
71
2
72
6
73
3
74
0
42
0.000000001
43
0.0000000001
44
0.0000000001
40
0
40
0
40
0
40
1
40
1
40
1
10
92.806980386984804
20
59.027815879717664
30
0
10
93.04163254858301
20
59.307488621607618
30
0
10
93.04163254858301
20
59.86137670411189
30
0
0
SPLINE
5
287
100
AcDbEntity
8
0
100
AcDbSpline
70
0
71
2
72
6
73
3
74
0
42
0.000000001
43
0.0000000001
44
0.0000000001
40
0
40
0
40
0
40
1
40
1
40
1
10
93.04163254858301
20
59.86137670411189
30
0
10
93.04163254858301
20
60.428907395735578
30
0
10
92.816530243170718
20
60.699030281439619
30
0
0
SPLINE
5
288
100
AcDbEntity
8
0
100
AcDbSpline
70
0
71
2
72
6
73
3
74
0
42
0.000000001
43
0.0000000001
44
0.0000000001
40
0
40
0
40
0
40
1
40
1
40
1
10
92.816530243170718
20
60.699030281439619
30
0
10
92.591427937758425
20
60.969152869120435
30
0
10
92.272192016852358
20
60.969152869120435
30
0
0
SPLINE
5
289
100
AcDbEntity
8
0
100
AcDbSpline
70
0
71
2
72
6
73
3
74
0
42
0.000000001
43
0.0000000001
44
0.0000000001
40
0
40
0
40
0
40
1
40
1
40
1
10
92.272192016852358
20
60.969152869120435
30
0
10
91.950227395308474
20
60.969152869120435
30
0
10
91.715575233710268
20
60.689480425253706
30
0
0
SPLINE
5
290
100
AcDbEntity
8
0
100
AcDbSpline
70
0
71
2
72
6
73
3
74
0
42
0.000000001
43
0.0000000001
44
0.0000000001
40
0
40
0
40
0
40
1
40
1
40
1
10
91.715575233710268
20
60.689480425253706
30
0
10
91.480923072112063
20
60.409807683363752
30
0
10
91.480923072112063
20
59.880476118460493
30
0
0
LINE
5
291
100
AcDbEntity
8
0
100
AcDbLine
10
96.124852076781252
20
59.342959047690229
30
0
11
96.632355824721316
21
59.280203403368787
31
0
0
SPLINE
5
292
100
AcDbEntity
8
0
100
AcDbSpline
70
0
71
2
72
6
73
3
74
0
42
0.000000001
43
0.0000000001
44
0.0000000001
40
0
40
0
40
0
40
1
40
1
40
1
10
96.632355824721316
20
59.280203403368787
30
0
10
96.512301341307619
20
58.835455895796613
30
0
10
96.18760742307947
20
58.589889527693586
30
0
0
SPLINE
5
293
100
AcDbEntity
8
0
100
AcDbSpline
70
0
71
2
72
6
73
3
74
0
42
0.000000001
43
0.0000000001
44
0.0000000001
40
0
40
0
40
0
40
1
40
1
40
1
10
96.18760742307947
20
58.589889527693586
30
0
10
95.862914696944216
20
58.344323755637006
30
0
10
95.35813964964197
20
58.344323755637006
30
0
0
SPLINE
5
294
100
AcDbEntity
8
0
100
AcDbSpline
70
0
71
2
72
6
73
3
74
0
42
0.000000001
43
0.0000000001
44
0.0000000001
40
0
40
0
40
0
40
1
40
1
40
1
10
95.35813964964197
20
58.344323755637006
30
0
10
94.722396508467654
20
58.344323755637006
30
0
10
94.349954501402834
20
58.735865177050428
30
0
0
SPLINE
5
295
100
AcDbEntity
8
0
100
AcDbSpline
70
0
71
2
72
6
73
3
74
0
42
0.000000001
43
0.0000000001
44
0.0000000001
40
0
40
0
40
0
40
1
40
1
40
1
10
94.349954501402834
20
58.735865177050428
30
0
10
93.977512494338015
20
59.12740659846385
30
0
10
93.977512494338015
20
59.83409148587306
30
0
0
SPLINE
5
296
100
AcDbEntity
8
0
100
AcDbSpline
70
0
71
2
72
6
73
3
74
0
42
0.000000001
43
0.0000000001
44
0.0000000001
40
0
40
0
40
0
40
1
40
1
40
1
10
93.977512494338015
20
59.83409148587306
30
0
10
93.977512494338015
20
60.565332890883283
30
0
10
94.354046956313113
20
60.969152869120435
30
0
0
SPLINE
5
297
100
AcDbEntity
8
0
100
AcDbSpline
70
0
71
2
72
6
73
3
74
0
42
0.000000001
43
0.0000000001
44
0.0000000001
40
0
40
0
40
0
40
1
40
1
40
1
10
94.354046956313113
20
60.969152869120435
30
0
10
94.730582610381106
20
61.372972847357588
30
0
10
95.330855027449587
20
61.372972847357588
30
0
0
SPLINE
5
298
100
AcDbEntity
8
0
100
AcDbSpline
70
0
71
2
72
6
73
3
74
0
42
0.000000001
43
0.0000000001
44
0.0000000001
40
0
40
0
40
0
40
1
40
1
40
1
10
95.330855027449587
20
61.372972847357588
30
0
10
95.912027732146242
20
61.372972847357588
30
0
10
96.280377284300783
20
60.97733837498744
30
0
0
SPLINE
5
299
100
AcDbEntity
8
0
100
AcDbSpline
70
0
71
2
72
6
73
3
74
0
42
0.000000001
43
0.0000000001
44
0.0000000001
40
0
40
0
40
0
40
1
40
1
40
1
10
96.280377284300783
20
60.97733837498744
30
0
10
96.648726836455324
20
60.581703902617292
30
0
10
96.648726836455324
20
59.864105106726484
30
0
0
SPLINE
5
300
100
AcDbEntity
8
0
100
AcDbSpline
70
0
71
2
72
6
73
3
74
0
42
0.000000001
43
0.0000000001
44
0.0000000001
40
0
40
0
40
0
40
1
40
1
40
1
10
96.648726836455324
20
59.864105106726484
30
0
10
96.648726836455324
20
59.820448876753645
30
0
10
96.645998135817507
20
59.733136416807966
30
0
0
LINE
5
301
100
AcDbEntity
8
0
100
AcDbLine
10
96.645998135817507
20
59.733136416807966
30
0
11
94.485016242278078
21
59.733136416807966
31
0
0
SPLINE
5
302
100
AcDbEntity
8
0
100
AcDbSpline
70
0
71
2
72
6
73
3
74
0
42
0.000000001
43
0.0000000001
44
0.0000000001
40
0
40
0
40
0
40
1
40
1
40
1
10
94.485016242278078
20
59.733136416807966
30
0
10
94.512300864470461
20
59.25564658774455
30
0
10
94.755138531935671
20
59.001895011797743
30
0
0
SPLINE
5
303
100
AcDbEntity
8
0
100
AcDbSpline
70
0
71
2
72
6
73
3
74
0
42
0.000000001
43
0.0000000001
44
0.0000000001
40
0
40
0
40
0
40
1
40
1
40
1
10
94.755138531935671
20
59.001895011797743
30
0
10
94.997976199400881
20
58.748143435850935
30
0
10
95.360868350279787
20
58.748143435850935
30
0
0
SPLINE
5
304
100
AcDbEntity
8
0
100
AcDbSpline
70
0
71
2
72
6
73
3
74
0
42
0.000000001
43
0.0000000001
44
0.0000000001
40
0
40
0
40
0
40
1
40
1
40
1
10
95.360868350279787
20
58.748143435850935
30
0
10
95.630991832030276
20
58.748143435850935
30
0
10
95.821987763655642
20
58.890026034251051
30
0
0
SPLINE
5
305
100
AcDbEntity
8
0
100
AcDbSpline
70
0
71
2
72
6
73
3
74
0
42
0.000000001
43
0.0000000001
44
0.0000000001
40
0
40
0
40
0
40
1
40
1
40
1
10
95.821987763655642
20
58.890026034251051
30
0
10
96.012982503188113
20
59.031908632651167
30
0
10
96.124852076781252
20
59.342959047690229
30
0
0
LINE
5
306
100
AcDbEntity
8
0
100
AcDbLine
10
94.512300864470461
20
60.136956395045118
30
0
11
96.130309478056887
21
60.136956395045118
31
0
0
SPLINE
5
307
100
AcDbEntity
8
0
100
AcDbSpline
70
0
71
2
72
6
73
3
74
0
42
0.000000001
43
0.0000000001
44
0.0000000001
40
0
40
0
40
0
40
1
40
1
40
1
10
96.130309478056887
20
60.136956395045118
30
0
10
96.097567454588869
20
60.502577246561842
30
0
10
95.944770947707156
20
60.68538737429698
30
0
0
SPLINE
5
308
100
AcDbEntity
8
0
100
AcDbSpline
70
0
71
2
72
6
73
3
74
0
42
0.000000001
43
0.0000000001
44
0.0000000001
40
0
40
0
40
0
40
1
40
1
40
1
10
95.944770947707156
20
60.68538737429698
30
0
10
95.710118190062502
20
60.969152869120435
30
0
10
95.336312428725222
20
60.969152869120435
30
0
0
SPLINE
5
309
100
AcDbEntity
8
0
100
AcDbSpline
70
0
71
2
72
6
73
3
74
0
42
0.000000001
43
0.0000000001
44
0.0000000001
40
0
40
0
40
0
40
1
40
1
40
1
10
95.336312428725222
20
60.969152869120435
30
0
10
94.997976199400881
20
60.969152869120435
30
0
10
94.767417088759402
20
60.742686511412458
30
0
0
SPLINE
5
310
100
AcDbEntity
8
0
100
AcDbSpline
70
0
71
2
72
6
73
3
74
0
42
0.000000001
43
0.0000000001
44
0.0000000001
40
0
40
0
40
0
40
1
40
1
40
1
10
94.767417088759402
20
60.742686511412458
30
0
10
94.536857978117922
20
60.516219855681257
30
0
10
94.512300864470461
20
60.136956395045118
30
0
0
LINE
5
311
100
AcDbEntity
8
0
100
AcDbLine
10
97.243541852248171
20
58.409807802573042
30
0
11
97.243541852248171
21
61.307488502398328
31
0
0
LINE
5
312
100
AcDbEntity
8
0
100
AcDbLine
10
97.243541852248171
20
61.307488502398328
30
0
11
97.685560361159304
21
61.307488502398328
31
0
0
LINE
5
313
100
AcDbEntity
8
0
100
AcDbLine
10
97.685560361159304
20
61.307488502398328
30
0
11
97.685560361159304
21
60.868197800055341
31
0
0
SPLINE
5
314
100
AcDbEntity
8
0
100
AcDbSpline
70
0
71
2
72
6
73
3
74
0
42
0.000000001
43
0.0000000001
44
0.0000000001
40
0
40
0
40
0
40
1
40
1
40
1
10
97.685560361159304
20
60.868197800055341
30
0
10
97.854729071867922
20
61.17651981247981
30
0
10
97.997975722563723
20
61.274746478930311
30
0
0
SPLINE
5
315
100
AcDbEntity
8
0
100
AcDbSpline
70
0
71
2
72
6
73
3
74
0
42
0.000000001
43
0.0000000001
44
0.0000000001
40
0
40
0
40
0
40
1
40
1
40
1
10
97.997975722563723
20
61.274746478930311
30
0
10
98.141222373259524
20
61.372972847357588
30
0
10
98.313118592513064
20
61.372972847357588
30
0
0
SPLINE
5
316
100
AcDbEntity
8
0
100
AcDbSpline
70
0
71
2
72
6
73
3
74
0
42
0.000000001
43
0.0000000001
44
0.0000000001
40
0
40
0
40
0
40
1
40
1
40
1
10
98.313118592513064
20
61.372972847357588
30
0
10
98.561413661253908
20
61.372972847357588
30
0
10
98.81789363981531
20
61.214718939200239
30
0
0
LINE
5
317
100
AcDbEntity
8
0
100
AcDbLine
10
98.81789363981531
20
61.214718939200239
30
0
11
98.648726121199587
21
60.759057523146467
31
0
0
SPLINE
5
318
100
AcDbEntity
8
0
100
AcDbSpline
70
0
71
2
72
6
73
3
74
0
42
0.000000001
43
0.0000000001
44
0.0000000001
40
0
40
0
40
0
40
1
40
1
40
1
10
98.648726121199587
20
60.759057523146467
30
0
10
98.468643800032595
20
60.865469397440748
30
0
10
98.288562670958498
20
60.865469397440748
30
0
0
SPLINE
5
319
100
AcDbEntity
8
0
100
AcDbSpline
70
0
71
2
72
6
73
3
74
0
42
0.000000001
43
0.0000000001
44
0.0000000001
40
0
40
0
40
0
40
1
40
1
40
1
10
98.288562670958498
20
60.865469397440748
30
0
10
98.127580062163332
20
60.865469397440748
30
0
10
97.999339476836184
20
60.76860737933238
30
0
0
SPLINE
5
320
100
AcDbEntity
8
0
100
AcDbSpline
70
0
71
2
72
6
73
3
74
0
42
0.000000001
43
0.0000000001
44
0.0000000001
40
0
40
0
40
0
40
1
40
1
40
1
10
97.999339476836184
20
60.76860737933238
30
0
10
97.871100083601931
20
60.671745063200788
30
0
10
97.81652964712427
20
60.499848843947248
30
0
0
SPLINE
5
321
100
AcDbEntity
8
0
100
AcDbSpline
70
0
71
2
72
6
73
3
74
0
42
0.000000001
43
0.0000000001
44
0.0000000001
40
0
40
0
40
0
40
1
40
1
40
1
10
97.81652964712427
20
60.499848843947248
30
0
10
97.734674588454226
20
60.237911464110212
30
0
10
97.734674588454226
20
59.92686104907115
30
0
0
LINE
5
322
100
AcDbEntity
8
0
100
AcDbLine
10
97.734674588454226
20
59.92686104907115
30
0
11
97.734674588454226
21
58.409807802573042
31
0
0
LINE
5
323
100
AcDbEntity
8
0
100
AcDbLine
10
97.734674588454226
20
58.409807802573042
30
0
11
97.243541852248171
21
58.409807802573042
31
0
0
LINE
5
324
100
AcDbEntity
8
0
100
AcDbLine
10
100.98979033590601
20
58.409807802573042
30
0
11
100.98979033590601
21
58.775428654089765
31
0
0
SPLINE
5
325
100
AcDbEntity
8
0
100
AcDbSpline
70
0
71
2
72
6
73
3
74
0
42
0.000000001
43
0.0000000001
44
0.0000000001
40
0
40
0
40
0
40
1
40
1
40
1
10
100.98979033590601
20
58.775428654089765
30
0
10
100.71421064497278
20
58.344323755637006
30
0
10
100.17942227484033
20
58.344323755637006
30
0
0
SPLINE
5
326
100
AcDbEntity
8
0
100
AcDbSpline
70
0
71
2
72
6
73
3
74
0
42
0.000000001
43
0.0000000001
44
0.0000000001
40
0
40
0
40
0
40
1
40
1
40
1
10
100.17942227484033
20
58.344323755637006
30
0
10
99.832901135695437
20
58.344323755637006
30
0
10
99.542314187300661
20
58.535319389239149
30
0
0
SPLINE
5
327
100
AcDbEntity
8
0
100
AcDbSpline
70
0
71
2
72
6
73
3
74
0
42
0.000000001
43
0.0000000001
44
0.0000000001
40
0
40
0
40
0
40
1
40
1
40
1
10
99.542314187300661
20
58.535319389239149
30
0
10
99.251728430998782
20
58.726315320864515
30
0
10
99.092109576476076
20
59.06874370707591
30
0
0
SPLINE
5
328
100
AcDbEntity
8
0
100
AcDbSpline
70
0
71
2
72
6
73
3
74
0
42
0.000000001
43
0.0000000001
44
0.0000000001
40
0
40
0
40
0
40
1
40
1
40
1
10
99.092109576476076
20
59.06874370707591
30
0
10
98.932491914046267
20
59.411172093287306
30
0
10
98.932491914046267
20
59.85591960085948
30
0
0
SPLINE
5
329
100
AcDbEntity
8
0
100
AcDbSpline
70
0
71
2
72
6
73
3
74
0
42
0.000000001
43
0.0000000001
44
0.0000000001
40
0
40
0
40
0
40
1
40
1
40
1
10
98.932491914046267
20
59.85591960085948
30
0
10
98.932491914046267
20
60.289753199950056
30
0
10
99.077103511107424
20
60.643095494643049
30
0
0
SPLINE
5
330
100
AcDbEntity
8
0
100
AcDbSpline
70
0
71
2
72
6
73
3
74
0
42
0.000000001
43
0.0000000001
44
0.0000000001
40
0
40
0
40
0
40
1
40
1
40
1
10
99.077103511107424
20
60.643095494643049
30
0
10
99.221713916075686
20
60.996438087359266
30
0
10
99.510937110198
20
61.184705318346815
30
0
0
SPLINE
5
331
100
AcDbEntity
8
0
100
AcDbSpline
70
0
71
2
72
6
73
3
74
0
42
0.000000001
43
0.0000000001
44
0.0000000001
40
0
40
0
40
0
40
1
40
1
40
1
10
99.510937110198
20
61.184705318346815
30
0
10
99.800159112227419
20
61.372972847357588
30
0
10
100.15759386183069
20
61.372972847357588
30
0
0
SPLINE
5
332
100
AcDbEntity
8
0
100
AcDbSpline
70
0
71
2
72
6
73
3
74
0
42
0.000000001
43
0.0000000001
44
0.0000000001
40
0
40
0
40
0
40
1
40
1
40
1
10
100.15759386183069
20
61.372972847357588
30
0
10
100.41953124166773
20
61.372972847357588
30
0
10
100.62416948438928
20
61.26246792210658
30
0
0
SPLINE
5
333
100
AcDbEntity
8
0
100
AcDbSpline
70
0
71
2
72
6
73
3
74
0
42
0.000000001
43
0.0000000001
44
0.0000000001
40
0
40
0
40
0
40
1
40
1
40
1
10
100.62416948438928
20
61.26246792210658
30
0
10
100.82880891920374
20
61.151963294878797
30
0
10
100.95704831243799
20
60.974609972372846
30
0
0
LINE
5
334
100
AcDbEntity
8
0
100
AcDbLine
10
100.95704831243799
20
60.974609972372846
30
0
11
100.95704831243799
21
62.409807564154463
31
0
0
LINE
5
335
100
AcDbEntity
8
0
100
AcDbLine
10
100.95704831243799
20
62.409807564154463
30
0
11
101.44545234800623
21
62.409807564154463
31
0
0
LINE
5
336
100
AcDbEntity
8
0
100
AcDbLine
10
101.44545234800623
20
62.409807564154463
30
0
11
101.44545234800623
21
58.409807802573042
31
0
0
LINE
5
337
100
AcDbEntity
8
0
100
AcDbLine
10
101.44545234800623
20
58.409807802573042
30
0
11
100.98979033590601
21
58.409807802573042
31
0
0
SPLINE
5
338
100
AcDbEntity
8
0
100
AcDbSpline
70
0
71
2
72
6
73
3
74
0
42
0.000000001
43
0.0000000001
44
0.0000000001
40
0
40
0
40
0
40
1
40
1
40
1
10
99.437266961348513
20
59.85591960085948
30
0
10
99.437266961348513
20
59.29930281771739
30
0
10
99.671918526900271
20
59.023723126784162
30
0
0
SPLINE
5
339
100
AcDbEntity
8
0
100
AcDbSpline
70
0
71
2
72
6
73
3
74
0
42
0.000000001
43
0.0000000001
44
0.0000000001
40
0
40
0
40
0
40
1
40
1
40
1
10
99.671918526900271
20
59.023723126784162
30
0
10
99.906571284544924
20
58.748143435850935
30
0
10
100.22580660940454
20
58.748143435850935
30
0
0
SPLINE
5
340
100
AcDbEntity
8
0
100
AcDbSpline
70
0
71
2
72
6
73
3
74
0
42
0.000000001
43
0.0000000001
44
0.0000000001
40
0
40
0
40
0
40
1
40
1
40
1
10
100.22580660940454
20
58.748143435850935
30
0
10
100.54777182699488
20
58.748143435850935
30
0
10
100.77287353636072
20
59.011444867983656
30
0
0
SPLINE
5
341
100
AcDbEntity
8
0
100
AcDbSpline
70
0
71
2
72
6
73
3
74
0
42
0.000000001
43
0.0000000001
44
0.0000000001
40
0
40
0
40
0
40
1
40
1
40
1
10
100.77287353636072
20
59.011444867983656
30
0
10
100.99797643781946
20
59.274746300116377
30
0
10
100.99797643781946
20
59.814992071524458
30
0
0
SPLINE
5
342
100
AcDbEntity
8
0
100
AcDbSpline
70
0
71
2
72
6
73
3
74
0
42
0.000000001
43
0.0000000001
44
0.0000000001
40
0
40
0
40
0
40
1
40
1
40
1
10
100.99797643781946
20
59.814992071524458
30
0
10
100.99797643781946
20
60.409807683363752
30
0
10
100.76878108145044
20
60.688116074934797
30
0
0
SPLINE
5
343
100
AcDbEntity
8
0
100
AcDbSpline
70
0
71
2
72
6
73
3
74
0
42
0.000000001
43
0.0000000001
44
0.0000000001
40
0
40
0
40
0
40
1
40
1
40
1
10
100.76878108145044
20
60.688116074934797
30
0
10
100.53958572508142
20
60.966424466505842
30
0
10
100.2039793884878
20
60.966424466505842
30
0
0
SPLINE
5
344
100
AcDbEntity
8
0
100
AcDbSpline
70
0
71
2
72
6
73
3
74
0
42
0.000000001
43
0.0000000001
44
0.0000000001
40
0
40
0
40
0
40
1
40
1
40
1
10
100.2039793884878
20
60.966424466505842
30
0
10
99.876557961714724
20
60.966424466505842
30
0
10
99.656912461531618
20
60.699030281439619
30
0
0
SPLINE
5
345
100
AcDbEntity
8
0
100
AcDbSpline
70
0
71
2
72
6
73
3
74
0
42
0.000000001
43
0.0000000001
44
0.0000000001
40
0
40
0
40
0
40
1
40
1
40
1
10
99.656912461531618
20
60.699030281439619
30
0
10
99.437266961348513
20
60.431635798350172
30
0
10
99.437266961348513
20
59.85591960085948
30
0
0
LINE
5
346
100
AcDbEntity
8
0
100
AcDbLine
10
104.2012492573385
20
59.342959047690229
30
0
11
104.70875181318567
21
59.280203403368787
31
0
0
SPLINE
5
347
100
AcDbEntity
8
0
100
AcDbSpline
70
0
71
2
72
6
73
3
74
0
42
0.000000001
43
0.0000000001
44
0.0000000001
40
0
40
0
40
0
40
1
40
1
40
1
10
104.70875181318567
20
59.280203403368787
30
0
10
104.58869852186487
20
58.835455895796613
30
0
10
104.26400579572962
20
58.589889527693586
30
0
0
SPLINE
5
348
100
AcDbEntity
8
0
100
AcDbSpline
70
0
71
2
72
6
73
3
74
0
42
0.000000001
43
0.0000000001
44
0.0000000001
40
0
40
0
40
0
40
1
40
1
40
1
10
104.26400579572962
20
58.589889527693586
30
0
10
103.93931306959436
20
58.344323755637006
30
0
10
103.43453683019922
20
58.344323755637006
30
0
0
SPLINE
5
349
100
AcDbEntity
8
0
100
AcDbSpline
70
0
71
2
72
6
73
3
74
0
42
0.000000001
43
0.0000000001
44
0.0000000001
40
0
40
0
40
0
40
1
40
1
40
1
10
103.43453683019922
20
58.344323755637006
30
0
10
102.7987936890249
20
58.344323755637006
30
0
10
102.42635168196009
20
58.735865177050428
30
0
0
SPLINE
5
350
100
AcDbEntity
8
0
100
AcDbSpline
70
0
71
2
72
6
73
3
74
0
42
0.000000001
43
0.0000000001
44
0.0000000001
40
0
40
0
40
0
40
1
40
1
40
1
10
102.42635168196009
20
58.735865177050428
30
0
10
102.05390967489527
20
59.12740659846385
30
0
10
102.05390967489527
20
59.83409148587306
30
0
0
SPLINE
5
351
100
AcDbEntity
8
0
100
AcDbSpline
70
0
71
2
72
6
73
3
74
0
42
0.000000001
43
0.0000000001
44
0.0000000001
40
0
40
0
40
0
40
1
40
1
40
1
10
102.05390967489527
20
59.83409148587306
30
0
10
102.05390967489527
20
60.565332890883283
30
0
10
102.43044413687036
20
60.969152869120435
30
0
0
SPLINE
5
352
100
AcDbEntity
8
0
100
AcDbSpline
70
0
71
2
72
6
73
3
74
0
42
0.000000001
43
0.0000000001
44
0.0000000001
40
0
40
0
40
0
40
1
40
1
40
1
10
102.43044413687036
20
60.969152869120435
30
0
10
102.80697979093836
20
61.372972847357588
30
0
10
103.40725220800684
20
61.372972847357588
30
0
0
SPLINE
5
353
100
AcDbEntity
8
0
100
AcDbSpline
70
0
71
2
72
6
73
3
74
0
42
0.000000001
43
0.0000000001
44
0.0000000001
40
0
40
0
40
0
40
1
40
1
40
1
10
103.40725220800684
20
61.372972847357588
30
0
10
103.98842491270349
20
61.372972847357588
30
0
10
104.35677446485803
20
60.97733837498744
30
0
0
SPLINE
5
354
100
AcDbEntity
8
0
100
AcDbSpline
70
0
71
2
72
6
73
3
74
0
42
0.000000001
43
0.0000000001
44
0.0000000001
40
0
40
0
40
0
40
1
40
1
40
1
10
104.35677446485803
20
60.97733837498744
30
0
10
104.72512401701258
20
60.581703902617292
30
0
10
104.72512401701258
20
59.864105106726484
30
0
0
SPLINE
5
355
100
AcDbEntity
8
0
100
AcDbSpline
70
0
71
2
72
6
73
3
74
0
42
0.000000001
43
0.0000000001
44
0.0000000001
40
0
40
0
40
0
40
1
40
1
40
1
10
104.72512401701258
20
59.864105106726484
30
0
10
104.72512401701258
20
59.820448876753645
30
0
10
104.72239412428186
20
59.733136416807966
30
0
0
LINE
5
356
100
AcDbEntity
8
0
100
AcDbLine
10
104.72239412428186
20
59.733136416807966
30
0
11
102.56141342283533
21
59.733136416807966
31
0
0
SPLINE
5
357
100
AcDbEntity
8
0
100
AcDbSpline
70
0
71
2
72
6
73
3
74
0
42
0.000000001
43
0.0000000001
44
0.0000000001
40
0
40
0
40
0
40
1
40
1
40
1
10
102.56141342283533
20
59.733136416807966
30
0
10
102.58869804502771
20
59.25564658774455
30
0
10
102.83153571249292
20
59.001895011797743
30
0
0
SPLINE
5
358
100
AcDbEntity
8
0
100
AcDbSpline
70
0
71
2
72
6
73
3
74
0
42
0.000000001
43
0.0000000001
44
0.0000000001
40
0
40
0
40
0
40
1
40
1
40
1
10
102.83153571249292
20
59.001895011797743
30
0
10
103.07437337995813
20
58.748143435850935
30
0
10
103.43726553083704
20
58.748143435850935
30
0
0
SPLINE
5
359
100
AcDbEntity
8
0
100
AcDbSpline
70
0
71
2
72
6
73
3
74
0
42
0.000000001
43
0.0000000001
44
0.0000000001
40
0
40
0
40
0
40
1
40
1
40
1
10
103.43726553083704
20
58.748143435850935
30
0
10
103.70738901258753
20
58.748143435850935
30
0
10
103.89838375212
20
58.890026034251051
30
0
0
SPLINE
5
360
100
AcDbEntity
8
0
100
AcDbSpline
70
0
71
2
72
6
73
3
74
0
42
0.000000001
43
0.0000000001
44
0.0000000001
40
0
40
0
40
0
40
1
40
1
40
1
10
103.89838375212
20
58.890026034251051
30
0
10
104.08938087583826
20
59.031908632651167
30
0
10
104.2012492573385
20
59.342959047690229
30
0
0
LINE
5
361
100
AcDbEntity
8
0
100
AcDbLine
10
102.58869804502771
20
60.136956395045118
30
0
11
104.20670665861414
21
60.136956395045118
31
0
0
SPLINE
5
362
100
AcDbEntity
8
0
100
AcDbSpline
70
0
71
2
72
6
73
3
74
0
42
0.000000001
43
0.0000000001
44
0.0000000001
40
0
40
0
40
0
40
1
40
1
40
1
10
104.20670665861414
20
60.136956395045118
30
0
10
104.17396463514612
20
60.502577246561842
30
0
10
104.02116693617151
20
60.68538737429698
30
0
0
SPLINE
5
363
100
AcDbEntity
8
0
100
AcDbSpline
70
0
71
2
72
6
73
3
74
0
42
0.000000001
43
0.0000000001
44
0.0000000001
40
0
40
0
40
0
40
1
40
1
40
1
10
104.02116693617151
20
60.68538737429698
30
0
10
103.78651537061975
20
60.969152869120435
30
0
10
103.41270960928247
20
60.969152869120435
30
0
0
SPLINE
5
364
100
AcDbEntity
8
0
100
AcDbSpline
70
0
71
2
72
6
73
3
74
0
42
0.000000001
43
0.0000000001
44
0.0000000001
40
0
40
0
40
0
40
1
40
1
40
1
10
103.41270960928247
20
60.969152869120435
30
0
10
103.07437337995813
20
60.969152869120435
30
0
10
102.84381426931665
20
60.742686511412458
30
0
0
SPLINE
5
365
100
AcDbEntity
8
0
100
AcDbSpline
70
0
71
2
72
6
73
3
74
0
42
0.000000001
43
0.0000000001
44
0.0000000001
40
0
40
0
40
0
40
1
40
1
40
1
10
102.84381426931665
20
60.742686511412458
30
0
10
102.61325515867517
20
60.516219855681257
30
0
10
102.58869804502771
20
60.136956395045118
30
0
0
LINE
5
366
100
AcDbEntity
8
0
100
AcDbLine
10
107.21625723005579
20
59.471199334994154
30
0
11
107.69920505644129
21
59.408443690672712
31
0
0
SPLINE
5
367
100
AcDbEntity
8
0
100
AcDbSpline
70
0
71
2
72
6
73
3
74
0
42
0.000000001
43
0.0000000001
44
0.0000000001
40
0
40
0
40
0
40
1
40
1
40
1
10
107.69920505644129
20
59.408443690672712
30
0
10
107.62007631422327
20
58.909125746622877
30
0
10
107.29401983381555
20
58.62672460211833
30
0
0
SPLINE
5
368
100
AcDbEntity
8
0
100
AcDbSpline
70
0
71
2
72
6
73
3
74
0
42
0.000000001
43
0.0000000001
44
0.0000000001
40
0
40
0
40
0
40
1
40
1
40
1
10
107.29401983381555
20
58.62672460211833
30
0
10
106.96796335340784
20
58.344323755637006
30
0
10
106.4932004368429
20
58.344323755637006
30
0
0
SPLINE
5
369
100
AcDbEntity
8
0
100
AcDbSpline
70
0
71
2
72
6
73
3
74
0
42
0.000000001
43
0.0000000001
44
0.0000000001
40
0
40
0
40
0
40
1
40
1
40
1
10
106.4932004368429
20
58.344323755637006
30
0
10
105.89838661314295
20
58.344323755637006
30
0
10
105.5368582165365
20
58.733136476412611
30
0
0
SPLINE
5
370
100
AcDbEntity
8
0
100
AcDbSpline
70
0
71
2
72
6
73
3
74
0
42
0.000000001
43
0.0000000001
44
0.0000000001
40
0
40
0
40
0
40
1
40
1
40
1
10
105.5368582165365
20
58.733136476412611
30
0
10
105.17532981993006
20
59.121949793234663
30
0
10
105.17532981993006
20
59.847734094992475
30
0
0
SPLINE
5
371
100
AcDbEntity
8
0
100
AcDbSpline
70
0
71
2
72
6
73
3
74
0
42
0.000000001
43
0.0000000001
44
0.0000000001
40
0
40
0
40
0
40
1
40
1
40
1
10
105.17532981993006
20
59.847734094992475
30
0
10
105.17532981993006
20
60.317038418188886
30
0
10
105.33085502744959
20
60.669016362562971
30
0
0
SPLINE
5
372
100
AcDbEntity
8
0
100
AcDbSpline
70
0
71
2
72
6
73
3
74
0
42
0.000000001
43
0.0000000001
44
0.0000000001
40
0
40
0
40
0
40
1
40
1
40
1
10
105.33085502744959
20
60.669016362562971
30
0
10
105.48638023496912
20
61.020994604960279
30
0
10
105.80425180555628
20
61.196983577147321
30
0
0
SPLINE
5
373
100
AcDbEntity
8
0
100
AcDbSpline
70
0
71
2
72
6
73
3
74
0
42
0.000000001
43
0.0000000001
44
0.0000000001
40
0
40
0
40
0
40
1
40
1
40
1
10
105.80425180555628
20
61.196983577147321
30
0
10
106.12212337614343
20
61.372972847357588
30
0
10
106.49593032957361
20
61.372972847357588
30
0
0
SPLINE
5
374
100
AcDbEntity
8
0
100
AcDbSpline
70
0
71
2
72
6
73
3
74
0
42
0.000000001
43
0.0000000001
44
0.0000000001
40
0
40
0
40
0
40
1
40
1
40
1
10
106.49593032957361
20
61.372972847357588
30
0
10
106.96796335340784
20
61.372972847357588
30
0
10
107.26809896589563
20
61.13422793282588
30
0
0
SPLINE
5
375
100
AcDbEntity
8
0
100
AcDbSpline
70
0
71
2
72
6
73
3
74
0
42
0.000000001
43
0.0000000001
44
0.0000000001
40
0
40
0
40
0
40
1
40
1
40
1
10
107.26809896589563
20
61.13422793282588
30
0
10
107.56823457838343
20
60.895483018294172
30
0
10
107.65282072187708
20
60.456192613974409
30
0
0
LINE
5
376
100
AcDbEntity
8
0
100
AcDbLine
10
107.65282072187708
20
60.456192613974409
30
0
11
107.17533029676721
21
60.382522465124921
31
0
0
SPLINE
5
377
100
AcDbEntity
8
0
100
AcDbSpline
70
0
71
2
72
6
73
3
74
0
42
0.000000001
43
0.0000000001
44
0.0000000001
40
0
40
0
40
0
40
1
40
1
40
1
10
107.17533029676721
20
60.382522465124921
30
0
10
107.10711635710047
20
60.674473465815382
30
0
10
106.93385519148157
20
60.821813167467909
30
0
0
SPLINE
5
378
100
AcDbEntity
8
0
100
AcDbSpline
70
0
71
2
72
6
73
3
74
0
42
0.000000001
43
0.0000000001
44
0.0000000001
40
0
40
0
40
0
40
1
40
1
40
1
10
106.93385519148157
20
60.821813167467909
30
0
10
106.76059641004846
20
60.969152869120435
30
0
10
106.51503004194544
20
60.969152869120435
30
0
0
SPLINE
5
379
100
AcDbEntity
8
0
100
AcDbSpline
70
0
71
2
72
6
73
3
74
0
42
0.000000001
43
0.0000000001
44
0.0000000001
40
0
40
0
40
0
40
1
40
1
40
1
10
106.51503004194544
20
60.969152869120435
30
0
10
106.14395298124597
20
60.969152869120435
30
0
10
105.91202892423914
20
60.703122736349897
30
0
0
SPLINE
5
380
100
AcDbEntity
8
0
100
AcDbSpline
70
0
71
2
72
6
73
3
74
0
42
0.000000001
43
0.0000000001
44
0.0000000001
40
0
40
0
40
0
40
1
40
1
40
1
10
105.91202892423914
20
60.703122736349897
30
0
10
105.6801048672323
20
60.437092901602583
30
0
10
105.6801048672323
20
59.86137670411189
30
0
0
SPLINE
5
381
100
AcDbEntity
8
0
100
AcDbSpline
70
0
71
2
72
6
73
3
74
0
42
0.000000001
43
0.0000000001
44
0.0000000001
40
0
40
0
40
0
40
1
40
1
40
1
10
105.6801048672323
20
59.86137670411189
30
0
10
105.6801048672323
20
59.277475000754194
30
0
10
105.90384163023279
20
59.012809218302564
30
0
0
SPLINE
5
382
100
AcDbEntity
8
0
100
AcDbSpline
70
0
71
2
72
6
73
3
74
0
42
0.000000001
43
0.0000000001
44
0.0000000001
40
0
40
0
40
0
40
1
40
1
40
1
10
105.90384163023279
20
59.012809218302564
30
0
10
106.12758077741907
20
58.748143435850935
30
0
10
106.48774541975305
20
58.748143435850935
30
0
0
SPLINE
5
383
100
AcDbEntity
8
0
100
AcDbSpline
70
0
71
2
72
6
73
3
74
0
42
0.000000001
43
0.0000000001
44
0.0000000001
40
0
40
0
40
0
40
1
40
1
40
1
10
106.48774541975305
20
58.748143435850935
30
0
10
106.77696622968958
20
58.748143435850935
30
0
10
106.97069086195276
20
58.925496758356886
30
0
0
SPLINE
5
384
100
AcDbEntity
8
0
100
AcDbSpline
70
0
71
2
72
6
73
3
74
0
42
0.000000001
43
0.0000000001
44
0.0000000001
40
0
40
0
40
0
40
1
40
1
40
1
10
106.97069086195276
20
58.925496758356886
30
0
10
107.16441549421594
20
59.102850080862837
30
0
10
107.21625723005579
20
59.471199334994154
30
0
0
LINE
5
385
100
AcDbEntity
8
0
100
AcDbLine
10
108.1221214687948
20
58.409807802573042
30
0
11
108.1221214687948
21
62.409807862177686
31
0
0
LINE
5
386
100
AcDbEntity
8
0
100
AcDbLine
10
108.1221214687948
20
62.409807862177686
30
0
11
108.61325420500086
21
62.409807862177686
31
0
0
LINE
5
387
100
AcDbEntity
8
0
100
AcDbLine
10
108.61325420500086
20
62.409807862177686
30
0
11
108.61325420500086
21
60.128770889178114
31
0
0
LINE
5
388
100
AcDbEntity
8
0
100
AcDbLine
10
108.61325420500086
20
60.128770889178114
30
0
11
109.77559961439417
21
61.307488502398328
31
0
0
LINE
5
389
100
AcDbEntity
8
0
100
AcDbLine
10
109.77559961439417
20
61.307488502398328
30
0
11
110.41134275556848
21
61.307488502398328
31
0
0
LINE
5
390
100
AcDbEntity
8
0
100
AcDbLine
10
110.41134275556848
20
61.307488502398328
30
0
11
109.30356659055994
21
60.232454360857801
31
0
0
LINE
5
391
100
AcDbEntity
8
0
100
AcDbLine
10
109.30356659055994
20
60.232454360857801
30
0
11
110.52321352125452
21
58.409807802573042
31
0
0
LINE
5
392
100
AcDbEntity
8
0
100
AcDbLine
10
110.52321352125452
20
58.409807802573042
30
0
11
109.91748251081751
21
58.409807802573042
31
0
0
LINE
5
393
100
AcDbEntity
8
0
100
AcDbLine
10
109.91748251081751
20
58.409807802573042
30
0
11
108.95977415205286
21
59.891390324965315
31
0
0
LINE
5
394
100
AcDbEntity
8
0
100
AcDbLine
10
108.95977415205286
20
59.891390324965315
30
0
11
108.61325420500086
21
59.558511794939832
31
0
0
LINE
5
395
100
AcDbEntity
8
0
100
AcDbLine
10
108.61325420500086
20
59.558511794939832
30
0
11
108.61325420500086
21
58.409807802573042
31
0
0
LINE
5
396
100
AcDbEntity
8
0
100
AcDbLine
10
108.61325420500086
20
58.409807802573042
30
0
11
108.1221214687948
21
58.409807802573042
31
0
0
LINE
5
397
100
AcDbEntity
8
0
100
AcDbLine
10
84.115362607511145
20
53.392151829120529
30
0
11
85.264153715330409
21
56.393426211434424
31
0
0
LINE
5
398
100
AcDbEntity
8
0
100
AcDbLine
10
85.264153715330394
20
56.393426211434424
30
0
11
85.69184784816315
21
56.39389993358855
31
0
0
LINE
5
399
100
AcDbEntity
8
0
100
AcDbLine
10
85.69184784816315
20
56.39389993358855
30
0
11
86.923000598561302
21
53.395261622346631
31
0
0
LINE
5
400
100
AcDbEntity
8
0
100
AcDbLine
10
86.923000598561302
20
53.395261622346624
30
0
11
86.47075003769649
21
53.394760701025874
31
0
0
LINE
5
401
100
AcDbEntity
8
0
100
AcDbLine
10
86.47075003769649
20
53.394760701025874
30
0
11
86.119812159249136
21
54.302967280415672
31
0
0
LINE
5
402
100
AcDbEntity
8
0
100
AcDbLine
10
86.119812159249136
20
54.302967280415672
30
0
11
84.865379013711632
21
54.301577846410638
31
0
0
LINE
5
403
100
AcDbEntity
8
0
100
AcDbLine
10
84.865379013711632
20
54.301577846410638
30
0
11
84.536917602485858
21
53.392618751448836
31
0
0
LINE
5
404
100
AcDbEntity
8
0
100
AcDbLine
10
84.536917602485858
20
53.392618751448822
30
0
11
84.115362607511145
21
53.392151829120529
31
0
0
LINE
5
405
100
AcDbEntity
8
0
100
AcDbLine
10
84.97961834749168
20
54.625033550264924
30
0
11
85.996670925416339
21
54.626160057039485
31
0
0
LINE
5
406
100
AcDbEntity
8
0
100
AcDbLine
10
85.996670925416339
20
54.626160057039485
30
0
11
85.682654081072968
21
55.4566448794086
31
0
0
SPLINE
5
407
100
AcDbEntity
8
0
100
AcDbSpline
70
0
71
2
72
6
73
3
74
0
42
0.000000001
43
0.0000000001
44
0.0000000001
40
0
40
0
40
0
40
1
40
1
40
1
10
85.682654081072968
20
55.4566448794086
30
0
10
85.538987896814717
20
55.835067120701531
30
0
10
85.469141114393381
20
56.078509898091006
30
0
0
SPLINE
5
408
100
AcDbEntity
8
0
100
AcDbSpline
70
0
71
2
72
6
73
3
74
0
42
0.000000001
43
0.0000000001
44
0.0000000001
40
0
40
0
40
0
40
1
40
1
40
1
10
85.469141114393381
20
56.078509898091006
30
0
10
85.412161903111752
20
55.789906186923204
30
0
10
85.308111454086983
20
55.505343243213161
30
0
0
LINE
5
409
100
AcDbEntity
8
0
100
AcDbLine
10
85.308111454086983
20
55.505343243213161
30
0
11
84.979618347491694
21
54.625033550264924
31
0
0
LINE
5
410
100
AcDbEntity
8
0
100
AcDbLine
10
87.236097347022138
20
53.395608414258753
30
0
11
87.23277449188339
21
56.395606693239841
31
0
0
LINE
5
411
100
AcDbEntity
8
0
100
AcDbLine
10
87.23277449188339
20
56.395606693239841
30
0
11
87.640004798095546
21
56.396057749270483
31
0
0
LINE
5
412
100
AcDbEntity
8
0
100
AcDbLine
10
87.640004798095546
20
56.396057749270483
30
0
11
89.218328841465222
21
54.042415487188862
31
0
0
LINE
5
413
100
AcDbEntity
8
0
100
AcDbLine
10
89.218328841465222
20
54.042415487188862
30
0
11
89.215719969422537
21
56.397803041356454
31
0
0
LINE
5
414
100
AcDbEntity
8
0
100
AcDbLine
10
89.215719969422551
20
56.397803041356454
30
0
11
89.596347248873883
21
56.398224631368798
31
0
0
LINE
5
415
100
AcDbEntity
8
0
100
AcDbLine
10
89.596347248873883
20
56.398224631368798
30
0
11
89.599670104012631
21
53.398226352387709
31
0
0
LINE
5
416
100
AcDbEntity
8
0
100
AcDbLine
10
89.599670104012631
20
53.398226352387709
30
0
11
89.192440095823514
21
53.397775296687165
31
0
0
LINE
5
417
100
AcDbEntity
8
0
100
AcDbLine
10
89.1924400958235
20
53.397775296687165
30
0
11
87.614113487991744
21
55.753463784638654
31
0
0
LINE
5
418
100
AcDbEntity
8
0
100
AcDbLine
10
87.614113487991744
20
55.753463784638654
30
0
11
87.61672462647347
21
53.396030004271097
31
0
0
LINE
5
419
100
AcDbEntity
8
0
100
AcDbLine
10
87.61672462647347
20
53.396030004271104
30
0
11
87.236097347022138
21
53.39560841425876
31
0
0
LINE
5
420
100
AcDbEntity
8
0
100
AcDbLine
10
92.232089846141591
20
56.401144029988153
30
0
11
92.629088127284803
21
56.401583752833268
31
0
0
LINE
5
421
100
AcDbEntity
8
0
100
AcDbLine
10
92.629088127284803
20
56.401583752833268
30
0
11
92.631007948711414
21
54.668296945164357
31
0
0
SPLINE
5
422
100
AcDbEntity
8
0
100
AcDbSpline
70
0
71
2
72
6
73
3
74
0
42
0.000000001
43
0.0000000001
44
0.0000000001
40
0
40
0
40
0
40
1
40
1
40
1
10
92.631007948711414
20
54.668296945164357
30
0
10
92.631508870362268
20
54.216046086276499
30
0
10
92.529484471617863
20
53.949902786156443
30
0
0
SPLINE
5
423
100
AcDbEntity
8
0
100
AcDbSpline
70
0
71
2
72
6
73
3
74
0
42
0.000000001
43
0.0000000001
44
0.0000000001
40
0
40
0
40
0
40
1
40
1
40
1
10
92.529484471617863
20
53.949902786156443
30
0
10
92.427460072543369
20
53.683759784059426
30
0
10
92.16059171883478
20
53.516683740699193
30
0
0
SPLINE
5
424
100
AcDbEntity
8
0
100
AcDbSpline
70
0
71
2
72
6
73
3
74
0
42
0.000000001
43
0.0000000001
44
0.0000000001
40
0
40
0
40
0
40
1
40
1
40
1
10
92.16059171883478
20
53.516683740699193
30
0
10
91.893723365126178
20
53.349607697338961
30
0
10
91.459890032153197
20
53.349127175290022
30
0
0
SPLINE
5
425
100
AcDbEntity
8
0
100
AcDbSpline
70
0
71
2
72
6
73
3
74
0
42
0.000000001
43
0.0000000001
44
0.0000000001
40
0
40
0
40
0
40
1
40
1
40
1
10
91.459890032153197
20
53.349127175290022
30
0
10
91.038335248472166
20
53.34866025319576
30
0
10
90.770097825278029
20
53.493656413623711
30
0
0
SPLINE
5
426
100
AcDbEntity
8
0
100
AcDbSpline
70
0
71
2
72
6
73
3
74
0
42
0.000000001
43
0.0000000001
44
0.0000000001
40
0
40
0
40
0
40
1
40
1
40
1
10
90.770097825278029
20
53.493656413623711
30
0
10
90.501860997799895
20
53.638652872734902
30
0
10
90.386958530421879
20
53.913764525776401
30
0
0
SPLINE
5
427
100
AcDbEntity
8
0
100
AcDbSpline
70
0
71
2
72
6
73
3
74
0
42
0.000000001
43
0.0000000001
44
0.0000000001
40
0
40
0
40
0
40
1
40
1
40
1
10
90.386958530421879
20
53.913764525776401
30
0
10
90.272056063043905
20
54.188876178817921
30
0
10
90.271527942143891
20
54.665683540243592
30
0
0
LINE
5
428
100
AcDbEntity
8
0
100
AcDbLine
10
90.271527942143891
20
54.665683540243592
30
0
11
90.26960812071728
21
56.398970347912496
31
0
0
LINE
5
429
100
AcDbEntity
8
0
100
AcDbLine
10
90.26960812071728
20
56.398970347912503
30
0
11
90.666606401860491
21
56.399410070757618
31
0
0
LINE
5
430
100
AcDbEntity
8
0
100
AcDbLine
10
90.666606401860506
20
56.399410070757618
30
0
11
90.668523956848063
21
54.668169489288665
31
0
0
SPLINE
5
431
100
AcDbEntity
8
0
100
AcDbSpline
70
0
71
2
72
6
73
3
74
0
42
0.000000001
43
0.0000000001
44
0.0000000001
40
0
40
0
40
0
40
1
40
1
40
1
10
90.668523956848063
20
54.668169489288665
30
0
10
90.668956879715836
20
54.277310482791428
30
0
10
90.741808701160892
20
54.092192873423699
30
0
0
SPLINE
5
432
100
AcDbEntity
8
0
100
AcDbSpline
70
0
71
2
72
6
73
3
74
0
42
0.000000001
43
0.0000000001
44
0.0000000001
40
0
40
0
40
0
40
1
40
1
40
1
10
90.741808701160892
20
54.092192873423699
30
0
10
90.814660521945768
20
53.907075860102047
30
0
10
90.991783563375336
20
53.806999089536724
30
0
0
SPLINE
5
433
100
AcDbEntity
8
0
100
AcDbSpline
70
0
71
2
72
6
73
3
74
0
42
0.000000001
43
0.0000000001
44
0.0000000001
40
0
40
0
40
0
40
1
40
1
40
1
10
90.991783563375336
20
53.806999089536724
30
0
10
91.168907200851024
20
53.70692231963158
30
0
10
91.424705145367241
20
53.707205646298924
30
0
0
SPLINE
5
434
100
AcDbEntity
8
0
100
AcDbSpline
70
0
71
2
72
6
73
3
74
0
42
0.000000001
43
0.0000000001
44
0.0000000001
40
0
40
0
40
0
40
1
40
1
40
1
10
91.424705145367241
20
53.707205646298924
30
0
10
91.862630930740153
20
53.707690701225957
30
0
10
92.048631958620291
20
53.906396103595554
30
0
0
SPLINE
5
435
100
AcDbEntity
8
0
100
AcDbSpline
70
0
71
2
72
6
73
3
74
0
42
0.000000001
43
0.0000000001
44
0.0000000001
40
0
40
0
40
0
40
1
40
1
40
1
10
92.048631958620291
20
53.906396103595554
30
0
10
92.234632986500429
20
54.105101505965138
30
0
10
92.234007401129148
20
54.669903448519214
30
0
0
LINE
5
436
100
AcDbEntity
8
0
100
AcDbLine
10
92.234007401129148
20
54.669903448519214
30
0
11
92.232089846141591
21
56.40114402998816
31
0
0
LINE
5
437
100
AcDbEntity
8
0
100
AcDbLine
10
93.238140429207306
20
53.402256391305379
30
0
11
93.234817574068558
21
56.402254670286467
31
0
0
LINE
5
438
100
AcDbEntity
8
0
100
AcDbLine
10
93.234817574068558
20
56.40225467028646
30
0
11
93.603166304227955
21
56.402662660344134
31
0
0
LINE
5
439
100
AcDbEntity
8
0
100
AcDbLine
10
93.603166304227955
20
56.402662660344134
30
0
11
93.606489159366703
21
53.402664381363046
31
0
0
LINE
5
440
100
AcDbEntity
8
0
100
AcDbLine
10
93.606489159366703
20
53.402664381363046
30
0
11
93.238140429207306
21
53.402256391305372
31
0
0
SPLINE
5
441
100
AcDbEntity
8
0
100
AcDbSpline
70
0
71
2
72
6
73
3
74
0
42
0.000000001
43
0.0000000001
44
0.0000000001
40
0
40
0
40
0
40
1
40
1
40
1
10
95.595277879329046
20
53.672943726232411
30
0
10
95.390831232215731
20
53.498774425808442
30
0
10
95.201620632944525
20
53.4269414832685
30
0
0
SPLINE
5
442
100
AcDbEntity
8
0
100
AcDbSpline
70
0
71
2
72
6
73
3
74
0
42
0.000000001
43
0.0000000001
44
0.0000000001
40
0
40
0
40
0
40
1
40
1
40
1
10
95.201620632944525
20
53.4269414832685
30
0
10
95.012408841911267
20
53.355108241385139
30
0
10
94.795492175424783
20
53.354867980360666
30
0
0
SPLINE
5
443
100
AcDbEntity
8
0
100
AcDbSpline
70
0
71
2
72
6
73
3
74
0
42
0.000000001
43
0.0000000001
44
0.0000000001
40
0
40
0
40
0
40
1
40
1
40
1
10
94.795492175424783
20
53.354867980360666
30
0
10
94.437375768357384
20
53.354471323818622
30
0
10
94.244821212969697
20
53.529224012516892
30
0
0
SPLINE
5
444
100
AcDbEntity
8
0
100
AcDbSpline
70
0
71
2
72
6
73
3
74
0
42
0.000000001
43
0.0000000001
44
0.0000000001
40
0
40
0
40
0
40
1
40
1
40
1
10
94.244821212969697
20
53.529224012516892
30
0
10
94.052267849344076
20
53.703977000558581
30
0
10
94.051966389843955
20
53.976145946766678
30
0
0
SPLINE
5
445
100
AcDbEntity
8
0
100
AcDbSpline
70
0
71
2
72
6
73
3
74
0
42
0.000000001
43
0.0000000001
44
0.0000000001
40
0
40
0
40
0
40
1
40
1
40
1
10
94.051966389843955
20
53.976145946766678
30
0
10
94.051789594064275
20
54.135763809308557
30
0
10
94.124289494012856
20
54.267835996187472
30
0
0
SPLINE
5
446
100
AcDbEntity
8
0
100
AcDbSpline
70
0
71
2
72
6
73
3
74
0
42
0.000000001
43
0.0000000001
44
0.0000000001
40
0
40
0
40
0
40
1
40
1
40
1
10
94.124289494012856
20
54.267835996187472
30
0
10
94.196790586053567
20
54.399908184386767
30
0
10
94.314368837494897
20
54.479847296464229
30
0
0
SPLINE
5
447
100
AcDbEntity
8
0
100
AcDbSpline
70
0
71
2
72
6
73
3
74
0
42
0.000000001
43
0.0000000001
44
0.0000000001
40
0
40
0
40
0
40
1
40
1
40
1
10
94.314368837494897
20
54.479847296464229
30
0
10
94.431948280698293
20
54.559786707885124
30
0
10
94.579241963513169
20
54.600877705632769
30
0
0
SPLINE
5
448
100
AcDbEntity
8
0
100
AcDbSpline
70
0
71
2
72
6
73
3
74
0
42
0.000000001
43
0.0000000001
44
0.0000000001
40
0
40
0
40
0
40
1
40
1
40
1
10
94.579241963513169
20
54.600877705632769
30
0
10
94.687669160345138
20
54.629647089765989
30
0
10
94.906601990967232
20
54.656492643330132
30
0
0
SPLINE
5
449
100
AcDbEntity
8
0
100
AcDbSpline
70
0
71
2
72
6
73
3
74
0
42
0.000000001
43
0.0000000001
44
0.0000000001
40
0
40
0
40
0
40
1
40
1
40
1
10
94.906601990967232
20
54.656492643330132
30
0
10
95.352654941195567
20
54.710192818855383
30
0
10
95.563350734958519
20
54.784096085538998
30
0
0
SPLINE
5
450
100
AcDbEntity
8
0
100
AcDbSpline
70
0
71
2
72
6
73
3
74
0
42
0.000000001
43
0.0000000001
44
0.0000000001
40
0
40
0
40
0
40
1
40
1
40
1
10
95.563350734958519
20
54.784096085538998
30
0
10
95.565313692522906
20
54.859814533486208
30
0
10
95.565291026481958
20
54.880278285601058
30
0
0
SPLINE
5
451
100
AcDbEntity
8
0
100
AcDbSpline
70
0
71
2
72
6
73
3
74
0
42
0.000000001
43
0.0000000001
44
0.0000000001
40
0
40
0
40
0
40
1
40
1
40
1
10
95.565291026481958
20
54.880278285601058
30
0
10
95.565041698876044
20
55.105380601945001
30
0
10
95.460573224472242
20
55.197352186190528
30
0
0
SPLINE
5
452
100
AcDbEntity
8
0
100
AcDbSpline
70
0
71
2
72
6
73
3
74
0
42
0.000000001
43
0.0000000001
44
0.0000000001
40
0
40
0
40
0
40
1
40
1
40
1
10
95.460573224472242
20
55.197352186190528
30
0
10
95.319235220546318
20
55.322025125608064
30
0
10
95.04092699969226
20
55.321716866130615
30
0
0
SPLINE
5
453
100
AcDbEntity
8
0
100
AcDbSpline
70
0
71
2
72
6
73
3
74
0
42
0.000000001
43
0.0000000001
44
0.0000000001
40
0
40
0
40
0
40
1
40
1
40
1
10
95.04092699969226
20
55.321716866130615
30
0
10
94.781036602776112
20
55.321429006585177
30
0
10
94.65733035100169
20
55.230227955041059
30
0
0
SPLINE
5
454
100
AcDbEntity
8
0
100
AcDbSpline
70
0
71
2
72
6
73
3
74
0
42
0.000000001
43
0.0000000001
44
0.0000000001
40
0
40
0
40
0
40
1
40
1
40
1
10
94.65733035100169
20
55.230227955041059
30
0
10
94.533625291484483
20
55.139026755805816
30
0
10
94.47453668678115
20
54.907719582473682
30
0
0
LINE
5
455
100
AcDbEntity
8
0
100
AcDbLine
10
94.47453668678115
20
54.907719582473682
30
0
11
94.114318462593204
21
54.956433961270868
31
0
0
SPLINE
5
456
100
AcDbEntity
8
0
100
AcDbSpline
70
0
71
2
72
6
73
3
74
0
42
0.000000001
43
0.0000000001
44
0.0000000001
40
0
40
0
40
0
40
1
40
1
40
1
10
94.114318462593204
20
54.956433961270868
30
0
10
94.163175936461769
20
55.187729653396246
30
0
10
94.275569788588683
20
55.330077916185267
30
0
0
SPLINE
5
457
100
AcDbEntity
8
0
100
AcDbSpline
70
0
71
2
72
6
73
3
74
0
42
0.000000001
43
0.0000000001
44
0.0000000001
40
0
40
0
40
0
40
1
40
1
40
1
10
94.275569788588683
20
55.330077916185267
30
0
10
94.387962448458396
20
55.472426326665428
30
0
10
94.600701664643779
20
55.549401348759758
30
0
0
SPLINE
5
458
100
AcDbEntity
8
0
100
AcDbSpline
70
0
71
2
72
6
73
3
74
0
42
0.000000001
43
0.0000000001
44
0.0000000001
40
0
40
0
40
0
40
1
40
1
40
1
10
94.600701664643779
20
55.549401348759758
30
0
10
94.813440880664103
20
55.626376519865602
30
0
10
95.093794731672062
20
55.626687045121905
30
0
0
SPLINE
5
459
100
AcDbEntity
8
0
100
AcDbSpline
70
0
71
2
72
6
73
3
74
0
42
0.000000001
43
0.0000000001
44
0.0000000001
40
0
40
0
40
0
40
1
40
1
40
1
10
95.093794731672062
20
55.626687045121905
30
0
10
95.372102952526134
20
55.626995304599347
30
0
10
95.546118420244142
20
55.561703662312297
30
0
0
SPLINE
5
460
100
AcDbEntity
8
0
100
AcDbSpline
70
0
71
2
72
6
73
3
74
0
42
0.000000001
43
0.0000000001
44
0.0000000001
40
0
40
0
40
0
40
1
40
1
40
1
10
95.546118420244142
20
55.561703662312297
30
0
10
95.720133887962135
20
55.496412020025254
30
0
10
95.802098827132795
20
55.39725311390329
30
0
0
SPLINE
5
461
100
AcDbEntity
8
0
100
AcDbSpline
70
0
71
2
72
6
73
3
74
0
42
0.000000001
43
0.0000000001
44
0.0000000001
40
0
40
0
40
0
40
1
40
1
40
1
10
95.802098827132795
20
55.39725311390329
30
0
10
95.884063766303456
20
55.298094207781332
30
0
10
95.916973499050499
20
55.146698111750929
30
0
0
SPLINE
5
462
100
AcDbEntity
8
0
100
AcDbSpline
70
0
71
2
72
6
73
3
74
0
42
0.000000001
43
0.0000000001
44
0.0000000001
40
0
40
0
40
0
40
1
40
1
40
1
10
95.916973499050499
20
55.146698111750929
30
0
10
95.935495587272015
20
55.052584804920087
30
0
10
95.935767580918863
20
54.807018736461288
30
0
0
LINE
5
463
100
AcDbEntity
8
0
100
AcDbLine
10
95.935767580918863
20
54.807018736461288
30
0
11
95.936311568047543
21
54.315886748555222
31
0
0
SPLINE
5
464
100
AcDbEntity
8
0
100
AcDbSpline
70
0
71
2
72
6
73
3
74
0
42
0.000000001
43
0.0000000001
44
0.0000000001
40
0
40
0
40
0
40
1
40
1
40
1
10
95.936311568047543
20
54.315886748555222
30
0
10
95.93688048782127
20
53.802244633322822
30
0
10
95.960564309316226
20
53.66618592789527
30
0
0
SPLINE
5
465
100
AcDbEntity
8
0
100
AcDbSpline
70
0
71
2
72
6
73
3
74
0
42
0.000000001
43
0.0000000001
44
0.0000000001
40
0
40
0
40
0
40
1
40
1
40
1
10
95.960564309316226
20
53.66618592789527
30
0
10
95.984249322573234
20
53.530127521811139
30
0
10
96.053964045085664
20
53.405375251085189
30
0
0
LINE
5
466
100
AcDbEntity
8
0
100
AcDbLine
10
96.053964045085664
20
53.405375251085189
30
0
11
95.669243717188323
21
53.404949127534557
31
0
0
SPLINE
5
467
100
AcDbEntity
8
0
100
AcDbSpline
70
0
71
2
72
6
73
3
74
0
42
0.000000001
43
0.0000000001
44
0.0000000001
40
0
40
0
40
0
40
1
40
1
40
1
10
95.669243717188323
20
53.404949127534557
30
0
10
95.611817684731079
20
53.519483269848891
30
0
10
95.595277879329046
20
53.672943726232411
30
0
0
SPLINE
5
468
100
AcDbEntity
8
0
100
AcDbSpline
70
0
71
2
72
6
73
3
74
0
42
0.000000001
43
0.0000000001
44
0.0000000001
40
0
40
0
40
0
40
1
40
1
40
1
10
95.563670327621509
20
54.495555839615982
30
0
10
95.363215327320816
20
54.41347840494187
30
0
10
94.962187462976374
20
54.355735344613848
30
0
0
SPLINE
5
469
100
AcDbEntity
8
0
100
AcDbSpline
70
0
71
2
72
6
73
3
74
0
42
0.000000001
43
0.0000000001
44
0.0000000001
40
0
40
0
40
0
40
1
40
1
40
1
10
94.962187462976374
20
54.355735344613848
30
0
10
94.735075335109528
20
54.3227417473502
30
0
10
94.640987109770208
20
54.281709680978949
30
0
0
SPLINE
5
470
100
AcDbEntity
8
0
100
AcDbSpline
70
0
71
2
72
6
73
3
74
0
42
0.000000001
43
0.0000000001
44
0.0000000001
40
0
40
0
40
0
40
1
40
1
40
1
10
94.640987109770208
20
54.281709680978949
30
0
10
94.546898884100798
20
54.240677912630744
30
0
10
94.495826321284397
20
54.161835577873767
30
0
0
SPLINE
5
471
100
AcDbEntity
8
0
100
AcDbSpline
70
0
71
2
72
6
73
3
74
0
42
0.000000001
43
0.0000000001
44
0.0000000001
40
0
40
0
40
0
40
1
40
1
40
1
10
94.495826321284397
20
54.161835577873767
30
0
10
94.444753758798072
20
54.082992945093736
30
0
10
94.444860289685749
20
53.986812863119404
30
0
0
SPLINE
5
472
100
AcDbEntity
8
0
100
AcDbSpline
70
0
71
2
72
6
73
3
74
0
42
0.000000001
43
0.0000000001
44
0.0000000001
40
0
40
0
40
0
40
1
40
1
40
1
10
94.444860289685749
20
53.986812863119404
30
0
10
94.44502348551076
20
53.839473549869474
30
0
10
94.55666084977986
20
53.741370474833225
30
0
0
SPLINE
5
473
100
AcDbEntity
8
0
100
AcDbSpline
70
0
71
2
72
6
73
3
74
0
42
0.000000001
43
0.0000000001
44
0.0000000001
40
0
40
0
40
0
40
1
40
1
40
1
10
94.55666084977986
20
53.741370474833225
30
0
10
94.668297021626714
20
53.643267696499635
30
0
10
94.883168057959324
20
53.643505691745247
30
0
0
SPLINE
5
474
100
AcDbEntity
8
0
100
AcDbSpline
70
0
71
2
72
6
73
3
74
0
42
0.000000001
43
0.0000000001
44
0.0000000001
40
0
40
0
40
0
40
1
40
1
40
1
10
94.883168057959324
20
53.643505691745247
30
0
10
95.09599107995372
20
53.643741418571231
30
0
10
95.261644788219542
20
53.737035458649501
30
0
0
SPLINE
5
475
100
AcDbEntity
8
0
100
AcDbSpline
70
0
71
2
72
6
73
3
74
0
42
0.000000001
43
0.0000000001
44
0.0000000001
40
0
40
0
40
0
40
1
40
1
40
1
10
95.261644788219542
20
53.737035458649501
30
0
10
95.427299688577548
20
53.830329500048165
30
0
10
95.504883182088179
20
53.99208001809879
30
0
0
SPLINE
5
476
100
AcDbEntity
8
0
100
AcDbSpline
70
0
71
2
72
6
73
3
74
0
42
0.000000001
43
0.0000000001
44
0.0000000001
40
0
40
0
40
0
40
1
40
1
40
1
10
95.504883182088179
20
53.99208001809879
30
0
10
95.564089651194791
20
54.116974786364615
30
0
10
95.563819923821924
20
54.360494777634962
30
0
0
LINE
5
477
100
AcDbEntity
8
0
100
AcDbLine
10
95.563819923821924
20
54.360494777634962
30
0
11
95.56367032762148
21
54.495555839615982
31
0
0
LINE
5
478
100
AcDbEntity
8
0
100
AcDbLine
10
96.847961799464258
20
53.4062546980958
30
0
11
96.506215201996568
21
53.405876173066133
31
0
0
LINE
5
479
100
AcDbEntity
8
0
100
AcDbLine
10
96.506215201996568
20
53.405876173066133
30
0
11
96.502892347187924
21
56.405874154024175
31
0
0
LINE
5
480
100
AcDbEntity
8
0
100
AcDbLine
10
96.50289234718791
20
56.405874154024175
30
0
11
96.871241673393371
21
56.406282144742043
31
0
0
LINE
5
481
100
AcDbEntity
8
0
100
AcDbLine
10
96.871241673393371
20
56.406282144742043
30
0
11
96.872427111956952
21
55.336023736813033
31
0
0
SPLINE
5
482
100
AcDbEntity
8
0
100
AcDbSpline
70
0
71
2
72
6
73
3
74
0
42
0.000000001
43
0.0000000001
44
0.0000000001
40
0
40
0
40
0
40
1
40
1
40
1
10
96.872427111956966
20
55.336023736813033
30
0
10
97.105390654429215
20
55.628914978004723
30
0
10
97.467600705988701
20
55.629316168745255
30
0
0
SPLINE
5
483
100
AcDbEntity
8
0
100
AcDbSpline
70
0
71
2
72
6
73
3
74
0
42
0.000000001
43
0.0000000001
44
0.0000000001
40
0
40
0
40
0
40
1
40
1
40
1
10
97.467600705988701
20
55.629316168745255
30
0
10
97.668146370783319
20
55.629538296936957
30
0
10
97.847294105591445
20
55.548904431825541
30
0
0
SPLINE
5
484
100
AcDbEntity
8
0
100
AcDbSpline
70
0
71
2
72
6
73
3
74
0
42
0.000000001
43
0.0000000001
44
0.0000000001
40
0
40
0
40
0
40
1
40
1
40
1
10
97.847294105591445
20
55.548904431825541
30
0
10
98.026441840399556
20
55.468270566714118
30
0
10
98.142224922182336
20
55.32208228159184
30
0
0
SPLINE
5
485
100
AcDbEntity
8
0
100
AcDbSpline
70
0
71
2
72
6
73
3
74
0
42
0.000000001
43
0.0000000001
44
0.0000000001
40
0
40
0
40
0
40
1
40
1
40
1
10
98.142224922182336
20
55.32208228159184
30
0
10
98.258008003965102
20
55.175893996469554
30
0
10
98.323720938736599
20
54.969281737371567
30
0
0
SPLINE
5
486
100
AcDbEntity
8
0
100
AcDbSpline
70
0
71
2
72
6
73
3
74
0
42
0.000000001
43
0.0000000001
44
0.0000000001
40
0
40
0
40
0
40
1
40
1
40
1
10
98.323720938736599
20
54.969281737371567
30
0
10
98.389433873343052
20
54.762669627285092
30
0
10
98.389694534134478
20
54.527335285872205
30
0
0
SPLINE
5
487
100
AcDbEntity
8
0
100
AcDbSpline
70
0
71
2
72
6
73
3
74
0
42
0.000000001
43
0.0000000001
44
0.0000000001
40
0
40
0
40
0
40
1
40
1
40
1
10
98.389694534134478
20
54.527335285872205
30
0
10
98.390313319198327
20
53.968672915987142
30
0
10
98.114389646086053
20
53.663455675994044
30
0
0
SPLINE
5
488
100
AcDbEntity
8
0
100
AcDbSpline
70
0
71
2
72
6
73
3
74
0
42
0.000000001
43
0.0000000001
44
0.0000000001
40
0
40
0
40
0
40
1
40
1
40
1
10
98.114389646086053
20
53.663455675994044
30
0
10
97.838464780881623
20
53.358238434680572
30
0
10
97.45169882283038
20
53.35781004535108
30
0
0
SPLINE
5
489
100
AcDbEntity
8
0
100
AcDbSpline
70
0
71
2
72
6
73
3
74
0
42
0.000000001
43
0.0000000001
44
0.0000000001
40
0
40
0
40
0
40
1
40
1
40
1
10
97.45169882283038
20
53.35781004535108
30
0
10
97.066978494933025
20
53.357383921800448
30
0
10
96.847660339964136
20
53.678423644303891
30
0
0
LINE
5
490
100
AcDbEntity
8
0
100
AcDbLine
10
96.847660339964136
20
53.678423644303891
30
0
11
96.847961799464258
21
53.4062546980958
31
0
0
SPLINE
5
491
100
AcDbEntity
8
0
100
AcDbSpline
70
0
71
2
72
6
73
3
74
0
42
0.000000001
43
0.0000000001
44
0.0000000001
40
0
40
0
40
0
40
1
40
1
40
1
10
96.842646450578002
20
54.509250724221602
30
0
10
96.843079373775879
20
54.118391419701325
30
0
10
96.949684142662448
20
53.94456694376376
30
0
0
SPLINE
5
492
100
AcDbEntity
8
0
100
AcDbSpline
70
0
71
2
72
6
73
3
74
0
42
0.000000001
43
0.0000000001
44
0.0000000001
40
0
40
0
40
0
40
1
40
1
40
1
10
96.949684142662448
20
53.94456694376376
30
0
10
97.123942138174073
20
53.660312110767222
30
0
10
97.420668182966068
20
53.66064077017667
30
0
0
SPLINE
5
493
100
AcDbEntity
8
0
100
AcDbSpline
70
0
71
2
72
6
73
3
74
0
42
0.000000001
43
0.0000000001
44
0.0000000001
40
0
40
0
40
0
40
1
40
1
40
1
10
97.420668182966068
20
53.66064077017667
30
0
10
97.662140755944307
20
53.660908229790103
30
0
10
97.837896993997305
20
53.870857734836036
30
0
0
SPLINE
5
494
100
AcDbEntity
8
0
100
AcDbSpline
70
0
71
2
72
6
73
3
74
0
42
0.000000001
43
0.0000000001
44
0.0000000001
40
0
40
0
40
0
40
1
40
1
40
1
10
97.837896993997305
20
53.870857734836036
30
0
10
98.013654424802667
20
54.080806645156265
30
0
10
98.013194302025539
20
54.496222750237393
30
0
0
SPLINE
5
495
100
AcDbEntity
8
0
100
AcDbSpline
70
0
71
2
72
6
73
3
74
0
42
0.000000001
43
0.0000000001
44
0.0000000001
40
0
40
0
40
0
40
1
40
1
40
1
10
98.013194302025539
20
54.496222750237393
30
0
10
98.012722846558034
20
54.921870433352922
30
0
10
97.843671975439491
20
55.124275328931908
30
0
0
SPLINE
5
496
100
AcDbEntity
8
0
100
AcDbSpline
70
0
71
2
72
6
73
3
74
0
42
0.000000001
43
0.0000000001
44
0.0000000001
40
0
40
0
40
0
40
1
40
1
40
1
10
97.843671975439491
20
55.124275328931908
30
0
10
97.674619912063733
20
55.32668037220202
30
0
10
97.435194161331552
20
55.326415179687835
30
0
0
SPLINE
5
497
100
AcDbEntity
8
0
100
AcDbSpline
70
0
71
2
72
6
73
3
74
0
42
0.000000001
43
0.0000000001
44
0.0000000001
40
0
40
0
40
0
40
1
40
1
40
1
10
97.435194161331552
20
55.326415179687835
30
0
10
97.19372039626117
20
55.326147718754022
30
0
10
97.017964157878055
20
55.116198511731127
30
0
0
SPLINE
5
498
100
AcDbEntity
8
0
100
AcDbSpline
70
0
71
2
72
6
73
3
74
0
42
0.000000001
43
0.0000000001
44
0.0000000001
40
0
40
0
40
0
40
1
40
1
40
1
10
97.017964157878055
20
55.116198511731127
30
0
10
96.842206727567827
20
54.90624915437634
30
0
10
96.842646450578002
20
54.509250724221602
30
0
0
SPLINE
5
499
100
AcDbEntity
8
0
100
AcDbSpline
70
0
71
2
72
6
73
3
74
0
42
0.000000001
43
0.0000000001
44
0.0000000001
40
0
40
0
40
0
40
1
40
1
40
1
10
101.71796115623208
20
53.765673489000854
30
0
10
101.53605771000613
20
53.562879869746581
30
0
10
101.32130006308105
20
53.461345930324072
30
0
0
SPLINE
5
500
100
AcDbEntity
8
0
100
AcDbSpline
70
0
71
2
72
6
73
3
74
0
42
0.000000001
43
0.0000000001
44
0.0000000001
40
0
40
0
40
0
40
1
40
1
40
1
10
101.32130006308105
20
53.461345930324072
30
0
10
101.10654122406382
20
53.359811989581168
30
0
10
100.85688255419358
20
53.359535462891159
30
0
0
SPLINE
5
501
100
AcDbEntity
8
0
100
AcDbSpline
70
0
71
2
72
6
73
3
74
0
42
0.000000001
43
0.0000000001
44
0.0000000001
40
0
40
0
40
0
40
1
40
1
40
1
10
100.85688255419358
20
53.359535462891159
30
0
10
100.39644649248282
20
53.359025475154027
30
0
10
100.12597984337779
20
53.669776506990978
30
0
0
SPLINE
5
502
100
AcDbEntity
8
0
100
AcDbSpline
70
0
71
2
72
6
73
3
74
0
42
0.000000001
43
0.0000000001
44
0.0000000001
40
0
40
0
40
0
40
1
40
1
40
1
10
100.12597984337779
20
53.669776506990978
30
0
10
99.906735294747051
20
53.923285399160477
30
0
10
99.906388502834943
20
54.236382147621299
30
0
0
SPLINE
5
503
100
AcDbEntity
8
0
100
AcDbSpline
70
0
71
2
72
6
73
3
74
0
42
0.000000001
43
0.0000000001
44
0.0000000001
40
0
40
0
40
0
40
1
40
1
40
1
10
99.906388502834943
20
54.236382147621299
30
0
10
99.906080243357493
20
54.514690368475378
30
0
10
100.08489025266985
20
54.738967750978844
30
0
0
SPLINE
5
504
100
AcDbEntity
8
0
100
AcDbSpline
70
0
71
2
72
6
73
3
74
0
42
0.000000001
43
0.0000000001
44
0.0000000001
40
0
40
0
40
0
40
1
40
1
40
1
10
100.08489025266985
20
54.738967750978844
30
0
10
100.26370145423945
20
54.963244985791178
30
0
10
100.61958410218776
20
55.133489264165192
30
0
0
SPLINE
5
505
100
AcDbEntity
8
0
100
AcDbSpline
70
0
71
2
72
6
73
3
74
0
42
0.000000001
43
0.0000000001
44
0.0000000001
40
0
40
0
40
0
40
1
40
1
40
1
10
100.61958410218776
20
55.133489264165192
30
0
10
100.41673322128986
20
55.36655253705262
30
0
10
100.3490414627253
20
55.511770974683792
30
0
0
SPLINE
5
506
100
AcDbEntity
8
0
100
AcDbSpline
70
0
71
2
72
6
73
3
74
0
42
0.000000001
43
0.0000000001
44
0.0000000001
40
0
40
0
40
0
40
1
40
1
40
1
10
100.3490414627253
20
55.511770974683792
30
0
10
100.28134970416073
20
55.656989412314964
30
0
10
100.2812001076302
20
55.792050772319037
30
0
0
SPLINE
5
507
100
AcDbEntity
8
0
100
AcDbSpline
70
0
71
2
72
6
73
3
74
0
42
0.000000001
43
0.0000000001
44
0.0000000001
40
0
40
0
40
0
40
1
40
1
40
1
10
100.2812001076302
20
55.792050772319037
30
0
10
100.28090091473418
20
56.062173343315642
30
0
10
100.49248131910173
20
56.261930192244172
30
0
0
SPLINE
5
508
100
AcDbEntity
8
0
100
AcDbSpline
70
0
71
2
72
6
73
3
74
0
42
0.000000001
43
0.0000000001
44
0.0000000001
40
0
40
0
40
0
40
1
40
1
40
1
10
100.49248131910173
20
56.261930192244172
30
0
10
100.70406053104699
20
56.461687337875368
30
0
10
101.02534248233073
20
56.462043195873775
30
0
0
SPLINE
5
509
100
AcDbEntity
8
0
100
AcDbSpline
70
0
71
2
72
6
73
3
74
0
42
0.000000001
43
0.0000000001
44
0.0000000001
40
0
40
0
40
0
40
1
40
1
40
1
10
101.02534248233073
20
56.462043195873775
30
0
10
101.33230025416863
20
56.462383188138674
30
0
10
101.52793798796132
20
56.274332235716756
30
0
0
SPLINE
5
510
100
AcDbEntity
8
0
100
AcDbSpline
70
0
71
2
72
6
73
3
74
0
42
0.000000001
43
0.0000000001
44
0.0000000001
40
0
40
0
40
0
40
1
40
1
40
1
10
101.52793798796132
20
56.274332235716756
30
0
10
101.7235769135161
20
56.086281582638264
30
0
10
101.72386930676487
20
55.822297988264594
30
0
0
SPLINE
5
511
100
AcDbEntity
8
0
100
AcDbSpline
70
0
71
2
72
6
73
3
74
0
42
0.000000001
43
0.0000000001
44
0.0000000001
40
0
40
0
40
0
40
1
40
1
40
1
10
101.72386930676487
20
55.822297988264594
30
0
10
101.72434302883647
20
55.394603929937588
30
0
10
101.15783031880903
20
55.091111354735382
30
0
0
LINE
5
512
100
AcDbEntity
8
0
100
AcDbLine
10
101.15783031880903
20
55.091111354735382
30
0
11
101.69678825192229
21
54.406169095703561
31
0
0
SPLINE
5
513
100
AcDbEntity
8
0
100
AcDbSpline
70
0
71
2
72
6
73
3
74
0
42
0.000000001
43
0.0000000001
44
0.0000000001
40
0
40
0
40
0
40
1
40
1
40
1
10
101.69678825192229
20
54.406169095703561
30
0
10
101.78867552560692
20
54.586352707379561
30
0
10
101.83957242586317
20
54.823789791578434
30
0
0
LINE
5
514
100
AcDbEntity
8
0
100
AcDbLine
10
101.83957242586317
20
54.823789791578434
30
0
11
102.2223365960084
21
54.742358341547401
31
0
0
SPLINE
5
515
100
AcDbEntity
8
0
100
AcDbSpline
70
0
71
2
72
6
73
3
74
0
42
0.000000001
43
0.0000000001
44
0.0000000001
40
0
40
0
40
0
40
1
40
1
40
1
10
102.22233659600843
20
54.742358341547408
30
0
10
102.12454577549408
20
54.349344013830546
30
0
10
101.9570231743115
20
54.095406432988128
30
0
0
SPLINE
5
516
100
AcDbEntity
8
0
100
AcDbSpline
70
0
71
2
72
6
73
3
74
0
42
0.000000001
43
0.0000000001
44
0.0000000001
40
0
40
0
40
0
40
1
40
1
40
1
10
101.9570231743115
20
54.095406432988128
30
0
10
102.16401184002136
20
53.821419890726077
30
0
10
102.42615532065143
20
53.635489426091084
30
0
0
LINE
5
517
100
AcDbEntity
8
0
100
AcDbLine
10
102.42615532065143
20
53.635489426091084
30
0
11
102.17886640680624
21
53.342582168833957
31
0
0
SPLINE
5
518
100
AcDbEntity
8
0
100
AcDbSpline
70
0
71
2
72
6
73
3
74
0
42
0.000000001
43
0.0000000001
44
0.0000000001
40
0
40
0
40
0
40
1
40
1
40
1
10
102.17886640680624
20
53.342582168833957
30
0
10
101.95565299481902
20
53.485581970002542
30
0
10
101.71796115623208
20
53.765673489000854
30
0
0
SPLINE
5
519
100
AcDbEntity
8
0
100
AcDbSpline
70
0
71
2
72
6
73
3
74
0
42
0.000000001
43
0.0000000001
44
0.0000000001
40
0
40
0
40
0
40
1
40
1
40
1
10
100.9672534539949
20
55.32828097800045
30
0
10
101.20652400047641
20
55.469746657473536
30
0
10
101.27700660290481
20
55.576236813924282
30
0
0
SPLINE
5
520
100
AcDbEntity
8
0
100
AcDbSpline
70
0
71
2
72
6
73
3
74
0
42
0.000000001
43
0.0000000001
44
0.0000000001
40
0
40
0
40
0
40
1
40
1
40
1
10
101.27700660290481
20
55.576236813924282
30
0
10
101.34748801324106
20
55.682726969054634
30
0
10
101.34734521668787
20
55.811649054412733
30
0
0
SPLINE
5
521
100
AcDbEntity
8
0
100
AcDbSpline
70
0
71
2
72
6
73
3
74
0
42
0.000000001
43
0.0000000001
44
0.0000000001
40
0
40
0
40
0
40
1
40
1
40
1
10
101.34734521668787
20
55.811649054412733
30
0
10
101.34717522055541
20
55.965127940331676
30
0
10
101.24986436137391
20
56.062223471298807
30
0
0
SPLINE
5
522
100
AcDbEntity
8
0
100
AcDbSpline
70
0
71
2
72
6
73
3
74
0
42
0.000000001
43
0.0000000001
44
0.0000000001
40
0
40
0
40
0
40
1
40
1
40
1
10
101.24986436137391
20
56.062223471298807
30
0
10
101.15255350219242
20
56.159319002265953
30
0
10
101.00726130921157
20
56.159158073870273
30
0
0
SPLINE
5
523
100
AcDbEntity
8
0
100
AcDbSpline
70
0
71
2
72
6
73
3
74
0
42
0.000000001
43
0.0000000001
44
0.0000000001
40
0
40
0
40
0
40
1
40
1
40
1
10
101.00726130921157
20
56.159158073870273
30
0
10
100.85787547173864
20
56.158992611276119
30
0
10
100.75873198530593
20
56.062702598095356
30
0
0
SPLINE
5
524
100
AcDbEntity
8
0
100
AcDbSpline
70
0
71
2
72
6
73
3
74
0
42
0.000000001
43
0.0000000001
44
0.0000000001
40
0
40
0
40
0
40
1
40
1
40
1
10
100.75873198530593
20
56.062702598095356
30
0
10
100.65958849887322
20
55.9664125849146
30
0
10
100.65974262844689
20
55.827258623499091
30
0
0
SPLINE
5
525
100
AcDbEntity
8
0
100
AcDbSpline
70
0
71
2
72
6
73
3
74
0
42
0.000000001
43
0.0000000001
44
0.0000000001
40
0
40
0
40
0
40
1
40
1
40
1
10
100.65974262844689
20
55.827258623499091
30
0
10
100.65981969331625
20
55.757681568285577
30
0
10
100.69571633208922
20
55.680981790980297
30
0
0
SPLINE
5
526
100
AcDbEntity
8
0
100
AcDbSpline
70
0
71
2
72
6
73
3
74
0
42
0.000000001
43
0.0000000001
44
0.0000000001
40
0
40
0
40
0
40
1
40
1
40
1
10
100.69571633208922
20
55.680981790980297
30
0
10
100.73161297069714
20
55.604282162686552
30
0
10
100.80333144997779
20
55.518413288078044
30
0
0
LINE
5
527
100
AcDbEntity
8
0
100
AcDbLine
10
100.80333144997779
20
55.518413288078044
30
0
11
100.9672534539949
21
55.32828097800045
31
0
0
LINE
5
528
100
AcDbEntity
8
0
100
AcDbLine
10
101.48639845119773
20
54.056003834365839
30
0
11
100.81016430828298
21
54.892226740145247
31
0
0
SPLINE
5
529
100
AcDbEntity
8
0
100
AcDbSpline
70
0
71
2
72
6
73
3
74
0
42
0.000000001
43
0.0000000001
44
0.0000000001
40
0
40
0
40
0
40
1
40
1
40
1
10
100.81016430828298
20
54.892226740145247
30
0
10
100.5115898287187
20
54.713860426500176
30
0
10
100.4073934065043
20
54.561289354730313
30
0
0
SPLINE
5
530
100
AcDbEntity
8
0
100
AcDbSpline
70
0
71
2
72
6
73
3
74
0
42
0.000000001
43
0.0000000001
44
0.0000000001
40
0
40
0
40
0
40
1
40
1
40
1
10
100.4073934065043
20
54.561289354730313
30
0
10
100.30319698461996
20
54.408717984937397
30
0
10
100.30336244721413
20
54.259332147464463
30
0
0
SPLINE
5
531
100
AcDbEntity
8
0
100
AcDbSpline
70
0
71
2
72
6
73
3
74
0
42
0.000000001
43
0.0000000001
44
0.0000000001
40
0
40
0
40
0
40
1
40
1
40
1
10
100.30336244721413
20
54.259332147464463
30
0
10
100.30356417580391
20
54.077204008584729
30
0
10
100.44907396376827
20
53.880912022608769
30
0
0
SPLINE
5
532
100
AcDbEntity
8
0
100
AcDbSpline
70
0
71
2
72
6
73
3
74
0
42
0.000000001
43
0.0000000001
44
0.0000000001
40
0
40
0
40
0
40
1
40
1
40
1
10
100.44907396376827
20
53.880912022608769
30
0
10
100.5945849434947
20
53.68462033597622
30
0
10
100.86061580714897
20
53.68491499681938
30
0
0
SPLINE
5
533
100
AcDbEntity
8
0
100
AcDbSpline
70
0
71
2
72
6
73
3
74
0
42
0.000000001
43
0.0000000001
44
0.0000000001
40
0
40
0
40
0
40
1
40
1
40
1
10
100.86061580714897
20
53.68491499681938
30
0
10
101.02637264631377
20
53.685098592246305
30
0
10
101.20326956384702
20
53.788636825115347
30
0
0
SPLINE
5
534
100
AcDbEntity
8
0
100
AcDbSpline
70
0
71
2
72
6
73
3
74
0
42
0.000000001
43
0.0000000001
44
0.0000000001
40
0
40
0
40
0
40
1
40
1
40
1
10
101.20326956384702
20
53.788636825115347
30
0
10
101.38016767314232
20
53.892175357327801
30
0
10
101.48639845119773
20
54.056003834365839
30
0
0
LINE
5
535
100
AcDbEntity
8
0
100
AcDbLine
10
105.41281940491673
20
54.592413106763658
30
0
11
105.41242954719669
21
54.944391282265734
31
0
0
LINE
5
536
100
AcDbEntity
8
0
100
AcDbLine
10
105.41242954719669
20
54.944391282265734
30
0
11
106.68323090628165
21
54.947845223737346
31
0
0
LINE
5
537
100
AcDbEntity
8
0
100
AcDbLine
10
106.68323090628165
20
54.947845223737353
30
0
11
106.68446394386135
21
53.834612638344126
31
0
0
SPLINE
5
538
100
AcDbEntity
8
0
100
AcDbSpline
70
0
71
2
72
6
73
3
74
0
42
0.000000001
43
0.0000000001
44
0.0000000001
40
0
40
0
40
0
40
1
40
1
40
1
10
106.68446394386135
20
53.834612638344126
30
0
10
106.39208993774879
20
53.601000546931736
30
0
10
106.0811700436591
20
53.482989074599594
30
0
0
SPLINE
5
539
100
AcDbEntity
8
0
100
AcDbSpline
70
0
71
2
72
6
73
3
74
0
42
0.000000001
43
0.0000000001
44
0.0000000001
40
0
40
0
40
0
40
1
40
1
40
1
10
106.0811700436591
20
53.482989074599594
30
0
10
105.77025014956942
20
53.364977602267444
30
0
10
105.44282773154755
20
53.364614942971315
30
0
0
SPLINE
5
540
100
AcDbEntity
8
0
100
AcDbSpline
70
0
71
2
72
6
73
3
74
0
42
0.000000001
43
0.0000000001
44
0.0000000001
40
0
40
0
40
0
40
1
40
1
40
1
10
105.44282773154755
20
53.364614942971315
30
0
10
105.00080949377474
20
53.36412535516618
30
0
10
104.63941259550552
20
53.553015823940768
30
0
0
SPLINE
5
541
100
AcDbEntity
8
0
100
AcDbSpline
70
0
71
2
72
6
73
3
74
0
42
0.000000001
43
0.0000000001
44
0.0000000001
40
0
40
0
40
0
40
1
40
1
40
1
10
104.63941259550552
20
53.553015823940768
30
0
10
104.27801569756642
20
53.74190599469231
30
0
10
104.09344556902352
20
54.099819301790291
30
0
0
SPLINE
5
542
100
AcDbEntity
8
0
100
AcDbSpline
70
0
71
2
72
6
73
3
74
0
42
0.000000001
43
0.0000000001
44
0.0000000001
40
0
40
0
40
0
40
1
40
1
40
1
10
104.09344556902352
20
54.099819301790291
30
0
10
103.90887424871852
20
54.457732309544852
30
0
10
103.90838466008816
20
54.899751292375285
30
0
0
SPLINE
5
543
100
AcDbEntity
8
0
100
AcDbSpline
70
0
71
2
72
6
73
3
74
0
42
0.000000001
43
0.0000000001
44
0.0000000001
40
0
40
0
40
0
40
1
40
1
40
1
10
103.90838466008816
20
54.899751292375285
30
0
10
103.90789960483103
20
55.337677375771229
30
0
10
104.09063099606399
20
55.717484404592092
30
0
0
SPLINE
5
544
100
AcDbEntity
8
0
100
AcDbSpline
70
0
71
2
72
6
73
3
74
0
42
0.000000001
43
0.0000000001
44
0.0000000001
40
0
40
0
40
0
40
1
40
1
40
1
10
104.09063099606399
20
55.717484404592092
30
0
10
104.27336119536986
20
56.097291283081049
30
0
10
104.61694942763251
20
56.281846736992307
30
0
0
SPLINE
5
545
100
AcDbEntity
8
0
100
AcDbSpline
70
0
71
2
72
6
73
3
74
0
42
0.000000001
43
0.0000000001
44
0.0000000001
40
0
40
0
40
0
40
1
40
1
40
1
10
104.61694942763251
20
56.281846736992307
30
0
10
104.96053766022524
20
56.466401892880512
30
0
10
105.40869517264404
20
56.466898280662988
30
0
0
SPLINE
5
546
100
AcDbEntity
8
0
100
AcDbSpline
70
0
71
2
72
6
73
3
74
0
42
0.000000001
43
0.0000000001
44
0.0000000001
40
0
40
0
40
0
40
1
40
1
40
1
10
105.40869517264404
20
56.466898280662988
30
0
10
105.73407196051204
20
56.467258674180265
30
0
10
105.99714753318256
20
56.362161236473725
30
0
0
SPLINE
5
547
100
AcDbEntity
8
0
100
AcDbSpline
70
0
71
2
72
6
73
3
74
0
42
0.000000001
43
0.0000000001
44
0.0000000001
40
0
40
0
40
0
40
1
40
1
40
1
10
105.99714753318256
20
56.362161236473725
30
0
10
106.26022549003743
20
56.257063801407966
30
0
10
106.40981985607749
20
56.068961850476413
30
0
0
SPLINE
5
548
100
AcDbEntity
8
0
100
AcDbSpline
70
0
71
2
72
6
73
3
74
0
42
0.000000001
43
0.0000000001
44
0.0000000001
40
0
40
0
40
0
40
1
40
1
40
1
10
106.40981985607749
20
56.068961850476413
30
0
10
106.55941422178745
20
55.880860197567905
30
0
10
106.63751223673856
20
55.578081456450249
30
0
0
LINE
5
549
100
AcDbEntity
8
0
100
AcDbLine
10
106.63751223673856
20
55.578081456450249
30
0
11
106.27950462699786
21
55.479458491733894
31
0
0
SPLINE
5
550
100
AcDbEntity
8
0
100
AcDbSpline
70
0
71
2
72
6
73
3
74
0
42
0.000000001
43
0.0000000001
44
0.0000000001
40
0
40
0
40
0
40
1
40
1
40
1
10
106.27950462699786
20
55.479458491733894
30
0
10
106.21171874524309
20
55.708578609738595
30
0
10
106.11130204178066
20
55.839436007532711
30
0
0
SPLINE
5
551
100
AcDbEntity
8
0
100
AcDbSpline
70
0
71
2
72
6
73
3
74
0
42
0.000000001
43
0.0000000001
44
0.0000000001
40
0
40
0
40
0
40
1
40
1
40
1
10
106.11130204178066
20
55.839436007532711
30
0
10
106.01088295396885
20
55.970293551697566
30
0
10
105.82457658829912
20
56.048872961039599
30
0
0
SPLINE
5
552
100
AcDbEntity
8
0
100
AcDbSpline
70
0
71
2
72
6
73
3
74
0
42
0.000000001
43
0.0000000001
44
0.0000000001
40
0
40
0
40
0
40
1
40
1
40
1
10
105.82457658829912
20
56.048872961039599
30
0
10
105.63826783811498
20
56.127452665763904
30
0
10
105.41111944458258
20
56.127201071884009
30
0
0
SPLINE
5
553
100
AcDbEntity
8
0
100
AcDbSpline
70
0
71
2
72
6
73
3
74
0
42
0.000000001
43
0.0000000001
44
0.0000000001
40
0
40
0
40
0
40
1
40
1
40
1
10
105.41111944458258
20
56.127201071884009
30
0
10
105.1389504983745
20
56.126899612383887
30
0
10
104.94054226177731
20
56.043801032365607
30
0
0
SPLINE
5
554
100
AcDbEntity
8
0
100
AcDbSpline
70
0
71
2
72
6
73
3
74
0
42
0.000000001
43
0.0000000001
44
0.0000000001
40
0
40
0
40
0
40
1
40
1
40
1
10
104.94054226177731
20
56.043801032365607
30
0
10
104.74213402485006
20
55.960702750370352
30
0
10
104.62052571190669
20
55.825506528990523
30
0
0
SPLINE
5
555
100
AcDbEntity
8
0
100
AcDbSpline
70
0
71
2
72
6
73
3
74
0
42
0.000000001
43
0.0000000001
44
0.0000000001
40
0
40
0
40
0
40
1
40
1
40
1
10
104.62052571190669
20
55.825506528990523
30
0
10
104.498915014779
20
55.690310304969934
30
0
10
104.43156205605706
20
55.528571267465871
30
0
0
SPLINE
5
556
100
AcDbEntity
8
0
100
AcDbSpline
70
0
71
2
72
6
73
3
74
0
42
0.000000001
43
0.0000000001
44
0.0000000001
40
0
40
0
40
0
40
1
40
1
40
1
10
104.43156205605706
20
55.528571267465871
30
0
10
104.31727449578355
20
55.250136118102809
30
0
10
104.31763488732025
20
54.92476111837307
30
0
0
SPLINE
5
557
100
AcDbEntity
8
0
100
AcDbSpline
70
0
71
2
72
6
73
3
74
0
42
0.000000001
43
0.0000000001
44
0.0000000001
40
0
40
0
40
0
40
1
40
1
40
1
10
104.31763488732025
20
54.92476111837307
30
0
10
104.31807914353861
20
54.523669937795376
30
0
10
104.4565084398576
20
54.253700213316158
30
0
0
SPLINE
5
558
100
AcDbEntity
8
0
100
AcDbSpline
70
0
71
2
72
6
73
3
74
0
42
0.000000001
43
0.0000000001
44
0.0000000001
40
0
40
0
40
0
40
1
40
1
40
1
10
104.4565084398576
20
54.253700213316158
30
0
10
104.59493773584649
20
53.983730786859979
30
0
10
104.85906684057707
20
53.853054571022803
30
0
0
SPLINE
5
559
100
AcDbEntity
8
0
100
AcDbSpline
70
0
71
2
72
6
73
3
74
0
42
0.000000001
43
0.0000000001
44
0.0000000001
40
0
40
0
40
0
40
1
40
1
40
1
10
104.85906684057707
20
53.853054571022803
30
0
10
105.12319594530764
20
53.722378355185619
30
0
10
105.41992199009965
20
53.722707014595073
30
0
0
SPLINE
5
560
100
AcDbEntity
8
0
100
AcDbSpline
70
0
71
2
72
6
73
3
74
0
42
0.000000001
43
0.0000000001
44
0.0000000001
40
0
40
0
40
0
40
1
40
1
40
1
10
105.41992199009965
20
53.722707014595073
30
0
10
105.67776437267756
20
53.72299260572089
30
0
10
105.92322065927156
20
53.822514318830123
30
0
0
SPLINE
5
561
100
AcDbEntity
8
0
100
AcDbSpline
70
0
71
2
72
6
73
3
74
0
42
0.000000001
43
0.0000000001
44
0.0000000001
40
0
40
0
40
0
40
1
40
1
40
1
10
105.92322065927156
20
53.822514318830123
30
0
10
106.16867694619565
20
53.922035733916317
30
0
10
106.29542903570247
20
54.034727348686964
30
0
0
LINE
5
562
100
AcDbEntity
8
0
100
AcDbLine
10
106.29542903570247
20
54.034727348686964
30
0
11
106.29481025030853
21
54.593390016595066
31
0
0
LINE
5
563
100
AcDbEntity
8
0
100
AcDbLine
10
106.29481025030853
20
54.593390016595066
30
0
11
105.41281940491673
21
54.592413106763658
31
0
0
LINE
5
564
100
AcDbEntity
8
0
100
AcDbLine
10
107.21493766186354
20
53.417737357688949
30
0
11
107.2116148067248
21
56.417735636670031
31
0
0
LINE
5
565
100
AcDbEntity
8
0
100
AcDbLine
10
107.2116148067248
20
56.417735636670031
30
0
11
107.57996413293027
21
56.418143627387906
31
0
0
LINE
5
566
100
AcDbEntity
8
0
100
AcDbLine
10
107.57996413293027
20
56.418143627387892
30
0
11
107.58328698806901
21
53.418145348406803
31
0
0
LINE
5
567
100
AcDbEntity
8
0
100
AcDbLine
10
107.58328698806903
20
53.41814534840681
30
0
11
107.21493766186356
21
53.417737357688949
31
0
0
LINE
5
568
100
AcDbEntity
8
0
100
AcDbLine
10
108.15342195728587
20
55.995176972591906
30
0
11
108.15295276842247
21
56.418778280495943
31
0
0
LINE
5
569
100
AcDbEntity
8
0
100
AcDbLine
10
108.15295276842247
20
56.418778280495943
30
0
11
108.52130209462793
21
56.41918627121381
31
0
0
LINE
5
570
100
AcDbEntity
8
0
100
AcDbLine
10
108.52130209462793
20
56.419186271213803
30
0
11
108.52177128349133
21
55.995584963309767
31
0
0
LINE
5
571
100
AcDbEntity
8
0
100
AcDbLine
10
108.52177128349133
20
55.995584963309774
30
0
11
108.15342195728587
21
55.995176972591906
31
0
0
LINE
5
572
100
AcDbEntity
8
0
100
AcDbLine
10
108.1562756235612
20
53.418780001514854
30
0
11
108.15386848027336
21
55.592039267791193
31
0
0
LINE
5
573
100
AcDbEntity
8
0
100
AcDbLine
10
108.15386848027336
20
55.592039267791193
30
0
11
108.52221780647882
21
55.592447258509061
31
0
0
LINE
5
574
100
AcDbEntity
8
0
100
AcDbLine
10
108.52221780647882
20
55.592447258509061
30
0
11
108.52462494976666
21
53.419187992232722
31
0
0
LINE
5
575
100
AcDbEntity
8
0
100
AcDbLine
10
108.52462494976666
20
53.419187992232722
30
0
11
108.1562756235612
21
53.418780001514854
31
0
0
LINE
5
576
100
AcDbEntity
8
0
100
AcDbLine
10
109.08533503596689
20
53.419809045386089
30
0
11
109.08292789267905
21
55.593068311662428
31
0
0
LINE
5
577
100
AcDbEntity
8
0
100
AcDbLine
10
109.08292789267905
20
55.593068311662428
30
0
11
109.41444157100868
21
55.593435502516272
31
0
0
LINE
5
578
100
AcDbEntity
8
0
100
AcDbLine
10
109.41444157100868
20
55.593435502516286
30
0
11
109.41478382954756
21
55.284431653489953
31
0
0
SPLINE
5
579
100
AcDbEntity
8
0
100
AcDbSpline
70
0
71
2
72
6
73
3
74
0
42
0.000000001
43
0.0000000001
44
0.0000000001
40
0
40
0
40
0
40
1
40
1
40
1
10
109.41478382954756
20
55.284431653489946
30
0
10
109.65381411516967
20
55.642813850438003
30
0
10
110.10606527208057
20
55.643314772418947
30
0
0
SPLINE
5
580
100
AcDbEntity
8
0
100
AcDbSpline
70
0
71
2
72
6
73
3
74
0
42
0.000000001
43
0.0000000001
44
0.0000000001
40
0
40
0
40
0
40
1
40
1
40
1
10
110.10606527208057
20
55.643314772418947
30
0
10
110.30251729238309
20
55.643532366412174
30
0
10
110.46733070665201
20
55.573114661956552
30
0
0
SPLINE
5
581
100
AcDbEntity
8
0
100
AcDbSpline
70
0
71
2
72
6
73
3
74
0
42
0.000000001
43
0.0000000001
44
0.0000000001
40
0
40
0
40
0
40
1
40
1
40
1
10
110.46733070665201
20
55.573114661956552
30
0
10
110.6321417367366
20
55.502696954860163
30
0
10
110.71412486777773
20
55.388190012455169
30
0
0
SPLINE
5
582
100
AcDbEntity
8
0
100
AcDbSpline
70
0
71
2
72
6
73
3
74
0
42
0.000000001
43
0.0000000001
44
0.0000000001
40
0
40
0
40
0
40
1
40
1
40
1
10
110.71412486777773
20
55.388190012455169
30
0
10
110.7961079986538
20
55.273683219061702
30
0
10
110.82902214702881
20
55.116147994756076
30
0
0
SPLINE
5
583
100
AcDbEntity
8
0
100
AcDbSpline
70
0
71
2
72
6
73
3
74
0
42
0.000000001
43
0.0000000001
44
0.0000000001
40
0
40
0
40
0
40
1
40
1
40
1
10
110.82902214702881
20
55.116147994756076
30
0
10
110.84960131600489
20
55.013851455498909
30
0
10
110.84988464267224
20
54.758053510982698
30
0
0
LINE
5
584
100
AcDbEntity
8
0
100
AcDbLine
10
110.84988464267224
20
54.758053510982698
30
0
11
110.85136474108867
21
53.421765133468526
31
0
0
LINE
5
585
100
AcDbEntity
8
0
100
AcDbLine
10
110.85136474108867
20
53.421765133468526
30
0
11
110.48301541488321
21
53.421357142750658
31
0
0
LINE
5
586
100
AcDbEntity
8
0
100
AcDbLine
10
110.48301541488321
20
53.421357142750658
30
0
11
110.48155118269543
21
54.743320893784436
31
0
0
SPLINE
5
587
100
AcDbEntity
8
0
100
AcDbSpline
70
0
71
2
72
6
73
3
74
0
42
0.000000001
43
0.0000000001
44
0.0000000001
40
0
40
0
40
0
40
1
40
1
40
1
10
110.48155118269543
20
54.743320893784436
30
0
10
110.48130185525459
20
54.968423061116873
30
0
10
110.43820340223185
20
55.07990343184175
30
0
0
SPLINE
5
588
100
AcDbEntity
8
0
100
AcDbSpline
70
0
71
2
72
6
73
3
74
0
42
0.000000001
43
0.0000000001
44
0.0000000001
40
0
40
0
40
0
40
1
40
1
40
1
10
110.43820340223185
20
55.07990343184175
30
0
10
110.39510733355851
20
55.191383656195868
30
0
10
110.28555192431155
20
55.257769810024548
30
0
0
SPLINE
5
589
100
AcDbEntity
8
0
100
AcDbSpline
70
0
71
2
72
6
73
3
74
0
42
0.000000001
43
0.0000000001
44
0.0000000001
40
0
40
0
40
0
40
1
40
1
40
1
10
110.28555192431155
20
55.257769810024548
30
0
10
110.17599651489954
20
55.324156112864742
30
0
10
110.02865630758049
20
55.323992916049448
30
0
0
SPLINE
5
590
100
AcDbEntity
8
0
100
AcDbSpline
70
0
71
2
72
6
73
3
74
0
42
0.000000001
43
0.0000000001
44
0.0000000001
40
0
40
0
40
0
40
1
40
1
40
1
10
110.02865630758049
20
55.323992916049448
30
0
10
109.79332300924824
20
55.323732256413358
30
0
10
109.62261398118143
20
55.174157006093679
30
0
0
SPLINE
5
591
100
AcDbEntity
8
0
100
AcDbSpline
70
0
71
2
72
6
73
3
74
0
42
0.000000001
43
0.0000000001
44
0.0000000001
40
0
40
0
40
0
40
1
40
1
40
1
10
109.62261398118143
20
55.174157006093679
30
0
10
109.45190733729895
20
55.024581758414769
30
0
10
109.45236972651513
20
54.607119427133668
30
0
0
LINE
5
592
100
AcDbEntity
8
0
100
AcDbLine
10
109.45236972651513
20
54.607119427133668
30
0
11
109.45368436217237
21
53.420217036103949
31
0
0
LINE
5
593
100
AcDbEntity
8
0
100
AcDbLine
10
109.45368436217237
20
53.420217036103956
30
0
11
109.08533503596689
21
53.419809045386089
31
0
0
LINE
5
594
100
AcDbEntity
8
0
100
AcDbLine
10
112.90311238996259
20
54.123901849342737
30
0
11
113.28379001366503
21
54.077256360475801
31
0
0
SPLINE
5
595
100
AcDbEntity
8
0
100
AcDbSpline
70
0
71
2
72
6
73
3
74
0
42
0.000000001
43
0.0000000001
44
0.0000000001
40
0
40
0
40
0
40
1
40
1
40
1
10
113.28379001366503
20
54.077256360475793
30
0
10
113.19412075045105
20
53.743596131300471
30
0
10
112.95080415816344
20
53.559152038187719
30
0
0
SPLINE
5
596
100
AcDbEntity
8
0
100
AcDbSpline
70
0
71
2
72
6
73
3
74
0
42
0.000000001
43
0.0000000001
44
0.0000000001
40
0
40
0
40
0
40
1
40
1
40
1
10
112.95080415816344
20
53.559152038187719
30
0
10
112.70748756620594
20
53.374707647051935
30
0
10
112.32890770504673
20
53.374288324799018
30
0
0
SPLINE
5
597
100
AcDbEntity
8
0
100
AcDbSpline
70
0
71
2
72
6
73
3
74
0
42
0.000000001
43
0.0000000001
44
0.0000000001
40
0
40
0
40
0
40
1
40
1
40
1
10
112.32890770504673
20
53.374288324799018
30
0
10
111.85209944955193
20
53.373760202908727
30
0
10
111.57244315453025
20
53.667106919987823
30
0
0
SPLINE
5
598
100
AcDbEntity
8
0
100
AcDbSpline
70
0
71
2
72
6
73
3
74
0
42
0.000000001
43
0.0000000001
44
0.0000000001
40
0
40
0
40
0
40
1
40
1
40
1
10
111.57244315453025
20
53.667106919987823
30
0
10
111.29278685950852
20
53.960453637066905
30
0
10
111.29219980690203
20
54.490466753991178
30
0
0
SPLINE
5
599
100
AcDbEntity
8
0
100
AcDbSpline
70
0
71
2
72
6
73
3
74
0
42
0.000000001
43
0.0000000001
44
0.0000000001
40
0
40
0
40
0
40
1
40
1
40
1
10
111.29219980690203
20
54.490466753991178
30
0
10
111.29159235436353
20
55.038897694853375
30
0
10
111.57365876081803
20
55.342075360932704
30
0
0
SPLINE
5
600
100
AcDbEntity
8
0
100
AcDbSpline
70
0
71
2
72
6
73
3
74
0
42
0.000000001
43
0.0000000001
44
0.0000000001
40
0
40
0
40
0
40
1
40
1
40
1
10
111.57365876081803
20
55.342075360932704
30
0
10
111.85572278325327
20
55.645252875359752
30
0
10
112.3059283100103
20
55.645751531561842
30
0
0
SPLINE
5
601
100
AcDbEntity
8
0
100
AcDbSpline
70
0
71
2
72
6
73
3
74
0
42
0.000000001
43
0.0000000001
44
0.0000000001
40
0
40
0
40
0
40
1
40
1
40
1
10
112.3059283100103
20
55.645751531561842
30
0
10
112.74180727313714
20
55.646234319389634
30
0
10
113.01839852275165
20
55.349814715330794
30
0
0
SPLINE
5
602
100
AcDbEntity
8
0
100
AcDbSpline
70
0
71
2
72
6
73
3
74
0
42
0.000000001
43
0.0000000001
44
0.0000000001
40
0
40
0
40
0
40
1
40
1
40
1
10
113.01839852275165
20
55.349814715330794
30
0
10
113.29498738818181
20
55.053395108631193
30
0
10
113.29558350769985
20
54.515196043826407
30
0
0
SPLINE
5
603
100
AcDbEntity
8
0
100
AcDbSpline
70
0
71
2
72
6
73
3
74
0
42
0.000000001
43
0.0000000001
44
0.0000000001
40
0
40
0
40
0
40
1
40
1
40
1
10
113.29558350769985
20
54.515196043826407
30
0
10
113.29561977336539
20
54.482454040442661
30
0
10
113.29364667487268
20
54.416967469873256
30
0
0
LINE
5
604
100
AcDbEntity
8
0
100
AcDbLine
10
113.29364667487268
20
54.416967469873256
30
0
11
111.67291154691605
21
54.415172312827266
31
0
0
SPLINE
5
605
100
AcDbEntity
8
0
100
AcDbSpline
70
0
71
2
72
6
73
3
74
0
42
0.000000001
43
0.0000000001
44
0.0000000001
40
0
40
0
40
0
40
1
40
1
40
1
10
111.67291154691605
20
54.415172312827266
30
0
10
111.69377165854019
20
54.057077677401608
30
0
10
111.87611029407296
20
53.866966063958664
30
0
0
SPLINE
5
606
100
AcDbEntity
8
0
100
AcDbSpline
70
0
71
2
72
6
73
3
74
0
42
0.000000001
43
0.0000000001
44
0.0000000001
40
0
40
0
40
0
40
1
40
1
40
1
10
111.87611029407296
20
53.866966063958664
30
0
10
112.05844893026593
20
53.676853854469648
30
0
10
112.33061787647401
20
53.677155313969756
30
0
0
SPLINE
5
607
100
AcDbEntity
8
0
100
AcDbSpline
70
0
71
2
72
6
73
3
74
0
42
0.000000001
43
0.0000000001
44
0.0000000001
40
0
40
0
40
0
40
1
40
1
40
1
10
112.33061787647401
20
53.677155313969756
30
0
10
112.5332091714225
20
53.677379707940318
30
0
10
112.67634025436061
20
53.783950480241181
30
0
0
SPLINE
5
608
100
AcDbEntity
8
0
100
AcDbSpline
70
0
71
2
72
6
73
3
74
0
42
0.000000001
43
0.0000000001
44
0.0000000001
40
0
40
0
40
0
40
1
40
1
40
1
10
112.67634025436061
20
53.783950480241181
30
0
10
112.81946895344448
20
53.890520951878244
30
0
10
112.90311238996259
20
54.123901849342737
30
0
0
LINE
5
609
100
AcDbEntity
8
0
100
AcDbLine
10
111.69303954211621
20
54.718059850941536
30
0
11
112.90654406583762
21
54.719403951626788
31
0
0
SPLINE
5
610
100
AcDbEntity
8
0
100
AcDbSpline
70
0
71
2
72
6
73
3
74
0
42
0.000000001
43
0.0000000001
44
0.0000000001
40
0
40
0
40
0
40
1
40
1
40
1
10
112.90654406583762
20
54.719403951626788
30
0
10
112.88168324114952
20
54.993592073137023
30
0
10
112.76693555826392
20
55.130572879843584
30
0
0
SPLINE
5
611
100
AcDbEntity
8
0
100
AcDbSpline
70
0
71
2
72
6
73
3
74
0
42
0.000000001
43
0.0000000001
44
0.0000000001
40
0
40
0
40
0
40
1
40
1
40
1
10
112.76693555826392
20
55.130572879843584
30
0
10
112.59071126423693
20
55.343201867624742
30
0
10
112.31035502904464
20
55.342891339727672
30
0
0
SPLINE
5
612
100
AcDbEntity
8
0
100
AcDbSpline
70
0
71
2
72
6
73
3
74
0
42
0.000000001
43
0.0000000001
44
0.0000000001
40
0
40
0
40
0
40
1
40
1
40
1
10
112.31035502904464
20
55.342891339727672
30
0
10
112.05660390677448
20
55.342610280159562
30
0
10
111.88387191475981
20
55.172568862934675
30
0
0
SPLINE
5
613
100
AcDbEntity
8
0
100
AcDbSpline
70
0
71
2
72
6
73
3
74
0
42
0.000000001
43
0.0000000001
44
0.0000000001
40
0
40
0
40
0
40
1
40
1
40
1
10
111.88387191475981
20
55.172568862934675
30
0
10
111.71114230692945
20
55.002527448350548
30
0
10
111.69303954211621
20
54.718059850941536
30
0
0
LINE
5
614
100
AcDbEntity
8
0
100
AcDbLine
10
113.74904276938032
20
53.424974656751978
30
0
11
113.74571991424159
21
56.424972935733066
31
0
0
LINE
5
615
100
AcDbEntity
8
0
100
AcDbLine
10
113.74571991424159
20
56.424972935733066
30
0
11
114.11406924044705
21
56.425380926450934
31
0
0
LINE
5
616
100
AcDbEntity
8
0
100
AcDbLine
10
114.11406924044705
20
56.425380926450934
30
0
11
114.11596412906356
21
54.714604395119871
31
0
0
LINE
5
617
100
AcDbEntity
8
0
100
AcDbLine
10
114.11596412906356
20
54.714604395119871
30
0
11
114.98674287855168
21
55.599607489401777
31
0
0
LINE
5
618
100
AcDbEntity
8
0
100
AcDbLine
10
114.98674287855168
20
55.599607489401777
30
0
11
115.46355113404647
21
55.600135611292067
31
0
0
LINE
5
619
100
AcDbEntity
8
0
100
AcDbLine
10
115.46355113404647
20
55.600135611292067
30
0
11
114.63361316162127
21
54.792940255479827
31
0
0
LINE
5
620
100
AcDbEntity
8
0
100
AcDbLine
10
114.63361316162128
20
54.792940255479827
30
0
11
115.54986010803975
21
53.426969276278804
31
0
0
LINE
5
621
100
AcDbEntity
8
0
100
AcDbLine
10
115.54986010803975
20
53.426969276278804
30
0
11
115.09556332097497
21
53.426466088519
31
0
0
LINE
5
622
100
AcDbEntity
8
0
100
AcDbLine
10
115.09556332097496
20
53.426466088519007
30
0
11
114.37605172136129
21
54.536856866208552
31
0
0
LINE
5
623
100
AcDbEntity
8
0
100
AcDbLine
10
114.37605172136131
20
54.536856866208552
30
0
11
114.11643785146526
21
54.286910038769832
31
0
0
LINE
5
624
100
AcDbEntity
8
0
100
AcDbLine
10
114.11643785146526
20
54.286910038769832
30
0
11
114.11739209558581
21
53.425382647469846
31
0
0
LINE
5
625
100
AcDbEntity
8
0
100
AcDbLine
10
114.11739209558579
20
53.425382647469846
30
0
11
113.74904276938032
21
53.424974656751978
31
0
0
ENDSEC
0
SECTION
2
OBJECTS
0
DICTIONARY
5
C
100
AcDbDictionary
3
ACAD_GROUP
350
D
3
ACAD_MLINESTYLE
350
17
0
DICTIONARY
5
D
100
AcDbDictionary
0
DICTIONARY
5
1A
330
C
100
AcDbDictionary
0
DICTIONARY
5
17
100
AcDbDictionary
0
ENDSEC
0
EOF
